logo
home - login or new id - Other Language: english /

検索ポイント(目次)の一覧を表示しています。樹枝状構造の末端まで表示しているので、このページでサイトの全体が把握できます。写真を見ながら絞り込みたい場合は元の画面から写真を見ながら検索して下さい。

2017-07-24 06:30:52 生成
検索Top
--あいまい語検索
----イノーの生物
------イノーの貝類
--------マド持ちのレイシガイ類
--------泥干潟でみられる貝類
--------タマキビ類
--------アマオブネ類
--------タカラガイ類
--------カニモリ類
--------潮間帯(岩場、潮上帯)の貝類
------イノーの魚類
------イノーの甲殻類
--------砂干潟の甲殻類
--------フジツボの仲間
--------シオマネキの仲間
------イノーの鳥類
------イノーの生物(その他)
------イノーの海草類、海藻類
------イノーの周りの植物
----サンゴ図鑑
------サンゴの形から検索
--------長い枝のサンゴ
--------短い枝のサンゴ
--------背の高い塊状のサンゴ
--------背の低い塊状のサンゴ
--------葉っぱ状のサンゴ
--------テーブル状のサンゴ
--------花状のサンゴ
--------筒状のサンゴ
--------円盤状のサンゴ
--------不規則な塊状のサンゴ
--------球状のサンゴ
--------ブラシ状のサンゴ
--------巨大な唇状のサンゴ
--------その他の不規則な形
------白化したサンゴ
------病気のサンゴ
--------腫瘍のあるサンゴ
--------不明な病気のサンゴ
--------ホワイトバンドディジーズ
------産卵しているサンゴ
------これは!というサンゴ
--------サンクチュアリ?
----------ダイオウサンゴのギャップで成長するミドリイシ幼群体
--------修復中!
----------波で削られたので
----------誰かに折られたので
--------カニこぶ
--------台風で壊されたサンゴ
------食べられたサンゴ
--------ハクセイハギに
--------貝類に食べられたサンゴ
------ハマサンゴを骨格から検索
--------発達したPaliが見える
----------融合無し&V字のTriplet
----------融合したTriplet
--------発達したPaliが見えない
----------厚いWall&深いポリプ
----------薄いWall&浅いポリプ
------サンゴの敵
------サンゴ礁
--------荒廃したサンゴ礁
--------健全なサンゴ礁
--------マイクロアトール
----沖縄の街路樹
------大型の街路樹
------ヤシ類の街路樹
------赤い花の街路樹
------黄色い花の街路樹
------白い花の街路樹
------紫色の花の街路樹
------大きな実の街路樹
------葉がメインの街路樹
----沖縄の道草
----海辺の植物
----魚の仲間
------クマノミの仲間
------スズメダイの仲間
------サメの仲間
------チョウチョウウオの仲間
------ハゼの仲間
------ヤッコの仲間
------フグの仲間
------ヨウジウオの仲間
------ハタの仲間
------ウツボの仲間
------その他の仲間
------幼魚
------クリーナー
----ウミウシの仲間
----その他の生物
------イカやタコの仲間
------イソギンチャクの仲間
------ウニの仲間
------ウミヘビの仲間
------エビやカニの仲間
--------クリーナー
------カイの仲間
------カイメンの仲間
------カメの仲間
------サメやエイの仲間
------ナマコの仲間
------ヒトデの仲間
--------クモヒトデの仲間
------ヒラムシの仲間
------ボネリムシの仲間
------ホヤの仲間
------海草の仲間
------海藻の仲間
------その他の仲間
----危険な生物
----海中風景
----風景、ビーチ
------ビーチや海岸
------シーサー
------空撮
------風景
------
------山(トレッキングなど)
------
----建物やお店
------施設
--------水族館
--------教会
--------学校
--------灯台
--------船舶
--------神社
--------博物館
--------公園
----------大型遊具のある公園
--------図書館
--------
--------ダム
--------植物園
--------動物園
--------
--------
--------空港
--------美術館
--------発電所
--------
--------酒蔵
--------地蔵
------カフェ・レストラン
--------スイーツ
--------レストラン
------パン屋
------市場
--------クリスマス市
--------商店街
------売店
------ホテル・民宿
------史跡や城跡
--------貝塚
--------城跡(城址)
------お墓
----
------巻雲(すじ状の雲)
--------鉤状雲
------巻層雲(高く薄い雲)
------巻積雲(うろこ雲)
------高積雲(ひつじ雲)
------積雲(わた雲)
------乱層雲(あま雲)
------積乱雲
------飛行機雲
----ダイビングショップ
------ウォーターキッズ
------AIダイバーズ
------沖縄リベルテダイビングサービス
----その他
------人工物
------集中収集企画
------気象
--------部分日食
--------日暈
--------黄砂
--------
--------月食
--------金星の日面通過
------漂着物
--------漂着マメ
--------漂着種子(マメ以外)
------航空機
--------P-3C(哨戒機)
------岩石・地形
--------両錐石英
--------島尻層泥岩
--------ビーチロック
--------有孔虫石灰岩(アワ石)
--------波食窪(ノッチ)
--------ポットホール
------電車
--------ゆいレール
------船舶
------マンホール
------他の生物に食べられた跡
------大宜味の猪垣
--地域検索
----日本
------宮城県
--------仙台市
----------錦町公園
----------定禅寺通
------山形県
--------鶴岡市
----------留棹庵島灯標
------福島県
--------いわき市
----------塩屋埼灯台
------茨城県
--------日立市
----------田楽鼻
----------日立灯台
----------古房地鼻
----------久慈漁港
----------北埜神社
----------南高野貝塚
----------赤羽緑地
------------赤羽横穴墓群
----------水木海水浴場
----------河原子町
------------津神社
------------河原子海岸(河原子港の南)
------------河原子漁港
------千葉県
--------館山市
--------明鐘岬
--------浦安市
--------鴨川市
--------君津市
--------木更津市
----------陸上自衛隊木更津駐屯地
----------東京湾アクアライン
------------海ほたる
------------風の塔
----------小櫃川の河口
--------袖ケ浦市
----------京葉臨海工業地帯(中袖)
--------富津岬
------東京都
--------三宅島
----------伊が谷湾
----------富賀浜
------------No.2
----------学校下
--------父島
----------二見湾
------------烏帽子岩
------------赤灯台下
------------丸山灯台
----------宮之浜
--------八丈島
----------底土
--------大島
--------平和島
--------渋谷区
----------渋谷駅前
--------世田谷区
----------二子玉川駅
--------目黒区
----------自由が丘
------------CHECK & STRIPE
--------品川区
----------品川駅
----------潮風公園
----------船の科学館
--------江東区
----------ダイバーシティ東京プラザ
----------テレコムセンター
----------東京国際交流館
----------シンボルプロムナード公園
------------ウェストパークブリッジ
------------であいばし
----------パレットタウン
------------ビーナスフォート
----------東京ビッグサイト
----------国際展示場駅(りんかい線)
----------有明駅(ゆりかもめ)
----------TOC有明
----------国際展示場正門駅(ゆりかもめ)
----------有明客船ターミナル
----------テレコムセンター駅(ゆりかもめ)
----------東京都立産業技術研究センター
----------産業技術総合研究所臨海副都心センター
----------日本科学未来館
----------湾岸スタジオ(フジテレビ)
----------東雲水辺公園
----------江東区夢の島競技場
----------新江東清掃工場
----------夢の島東少年野球場
----------荒川(河口、首都高速湾岸線近辺)
--------港区
----------台場駅(ゆりかもめ)
----------フジテレビ本社
----------お台場海浜公園
----------レインボーブリッジ
----------レインボーブリッジ袂の水路
----------東京タワー
----------Aqua City Odaiba
----------新橋駅(ゆりかもめ)
--------隅田川(浅草)
--------台東区
----------国立科学博物館
----------寛永寺
----------上野駅(JR)
--------墨田区
----------東京スカイツリー
----------江戸東京博物館
--------江戸川区
----------江戸川区臨海球技場
----------旧江戸川(河口、首都高速湾岸線付近)
--------千代田区
----------上智大学
------------聖イグナチオ教会
------------上智大学の側の土手
----------神保町駅
----------ホテルニューオータニ
--------東京湾
--------築地
----------築地市場
----------築地場外市場
----------波除稲荷神社
--------池袋
----------立教大学
--------新宿
----------都庁北
----------新宿駅
--------四ッ谷
----------四ツ谷駅(私鉄)
--------東京国際空港(羽田空港)
--------銀座
----------和光本店(セイコー)
----------アップルストア
----------GAP
--------日暮里駅
--------大井ふ頭中央海浜公園スポーツの森
------埼玉県
--------和光市
------神奈川県
--------横浜市
----------横浜中華街
------------善隣門
----------仲町台 せせらぎ公園
----------鶴見区
------------新潮鶴橋
------------明正寺
------------弁天橋駅
------------汐入公園
------------日東緑地
----------杉田八幡宮
----------妙法寺
----------横浜ベイブリッジ
----------早渕公園
--------川崎市
----------京町ポンプ場近くの小道
----------NTTドコモ川崎ビル
--------海老名市
----------海老名サービスエリア(上り)
--------横須賀市
------山梨県
--------山中湖村
------静岡県
--------静波海岸
--------富士山
--------焼津港
--------大井川港
--------大瀬崎
--------久能山東照宮
--------蓬莱橋
--------静岡空港
--------富戸
----------ヨコバマ
--------浜松市
----------航空自衛隊浜松基地
----------浜名湖
----------弁天島
----------天竜川河口
------愛知県
--------中部国際空港
--------佐久島
--------日間賀島
------三重県
--------津市香良洲町
--------伊勢市
------奈良県
--------曽爾高原
------和歌山県
--------串本町
--------印南
--------南部
----------ニシザキ
--------美浜町
----------日の岬
--------高野町
----------金剛峯寺
----------持明院
----------英霊殿
----------壇上伽藍
------------山王院
------------蓮池
------------大塔
------------壇上伽藍の鐘楼
------------壇上伽藍金堂
------------登天の松
------------三鈷の松
------------東塔
----------杖ケ薮の橋
----------成福院
----------大円院
----------高室院
----------安養院
----------蓮花院
----------如意輪寺
----------奥の院への裏参道
----------水向地蔵(奥の院入り口)
----------御廟橋
----------奥の院
----------奥の院の御供所
----------平和橋
----------常喜院
----------金剛講総本部
----------大師教会本部
----------明泉院
----------勧学院
----------六時鐘
----------高野山大学
--------かつらぎ町
----------紀の川万葉の里
------京都府
--------円山公園
----------祇園桜
------大阪府
--------関西国際空港
--------関西空港駅
------兵庫県
--------淡路島
----------江埼灯台
--------明石海峡大橋
--------神戸市
----------神戸ムスリムモスク
----------NHK神戸
----------南京町
------------長安門
----------神戸国際交流会館
----------神戸空港
----------神戸空港連絡橋
----------二宮筋商店街
----------CHECK&STRIPES(神戸)
----------カトリック神戸中央教会
----------行吉国晴記念館
----------市民広場駅(ポートライナー)
--------播磨町
----------東新島
--------男鹿島
--------西島
------島根県
--------隠岐
----------島後
------------原田
------------岬町
--------------隠岐空港
------------ローソク島展望台
------------白島崎
--------------白島崎灯台
------------一夜獄神社
------------水若酢神社
------------久見港
------------隠岐の島町役場
--------出雲市
----------JR出雲市駅
----------出雲空港
------広島県
--------東広島市
----------鏡山公園
----------西条町
------------新宮神社
------------福成寺
--------------仁王門
--------------本堂
--------------本堂の前の橋
--------------夫婦杉
--------------鎮守社
------------三永水源地
------------賀茂泉酒造
------------福美人酒造
------------賀茂鶴酒造
------------亀齢酒造
------------本陣(御茶屋)跡
------------教善寺
------------西条駅
------------白牡丹酒造
------------西條鶴醸造
------------酒泉館
------------早稲木地蔵
----------広島大学
----------上ノ原牧場
----------湖畔の里福富(道の駅)
----------金光酒造
----------東広島駅
----------鏡山城跡
------------5郭(下のダバ)
------------2郭(中のダバ)
------------3郭(馬のダバ)
------------1郭(御殿場)
----------徳正寺
----------宝蔵神社
----------赤平神社
----------楢原兼沢1号橋
----------酒類総合研究所
--------安芸高田市
----------ニュージーランド村
----------本郷小学校
--------広島市
----------安佐動物園
----------MAZDA Zoom-Zoom スタジアム広島
----------福屋
----------猿猴橋
----------駅前大橋
----------京橋
----------市杵嶋姫大明神
--------安芸太田町
----------三段峡
--------三原市
----------広島空港
----------棲真寺
------------ハス池
----------広島空港大橋
--------呉市
----------
----------もみじ橋
----------野呂山
------------野呂山ビジターセンター
------------氷池
------------ハチマキ展望台
----------川尻町
----------安芸灘大橋
----------下蒲刈島
----------上蒲刈島
----------柏島
----------安浦町
--------廿日市市
----------渡ノ瀬貯水池
------山口県
--------弥栄湖
--------周南市
------香川県
--------瀬戸大橋
--------小豆島
--------さぬき市
----------津田
----------雨滝山
----------東植田町
--------高松空港
--------まんのう町
----------大川山
----------満濃池
--------荘内半島
------徳島県
--------三次市
----------池田ダム
------高知県
--------柏島
--------高知市
----------追手筋
------------日曜市
--------吉良川町
----------御田八幡宮
--------室戸岬
--------早明浦ダム
--------津賀ダム
--------四万十町
----------大井川
----------十川
------愛媛県
--------瓶が森
--------石鎚神社 土小屋遙拝殿
--------佐田岬半島
--------四国中央市
----------川之江
--------松野町
----------目黒
--------権現山
--------愛南町
------福岡県
--------マリンワールド 海の中道
--------博多駅
--------福岡空港
------長崎県
--------長崎空港
------熊本県
------大分県
--------深島
--------西野浦
--------佐伯市
----------宇目
----------米水津湾
----------番匠川河口
--------大島
--------津久見市
----------津久見湾
--------四浦半島
--------臼杵市
--------保戸島
--------無垢島
--------大分市
----------一尺屋
--------高島
--------姫島
------宮崎県
--------新富町
--------小林市
----------小野湖
----------綾北川(小林市)
--------西都市
----------銀鏡川
----------一ツ瀬川
--------美郷町
----------熊の神楽
----------南郷区
--------門川町
----------門川湾
----------遠見半島
--------延岡市
----------長浜
----------延岡港
----------島浦島
----------北川町
----------北浦町
--------矢岳
--------宮崎市
--------日向市
--------仁久志山
------鹿児島県
--------川内
----------旅館みやざき
----------甑島列島
------------中甑島と上甑島の間の島
------------下甑島
--------桜島
--------三島村
----------黒島
----------竹島
----------硫黄島
--------大隅諸島
----------種子島
------------住吉
------------熊野港指向灯
------------島間埼灯台
----------屋久島
------------永田
----------口永良部島
--------奄美大島
----------笠利埼灯台
----------奄美空港
----------加崎岳
--------与論島
----------茶花海岸
----------大金久海岸
----------与論空港
----------プリシアリゾート
------------ビーチ
----------ダイビングポイント(北側)
------------電報口
------------海中宮殿
------------那間
------------沈船あまみ
------------カメポイント
----------茶花港
----------供利港
----------ダイビングポイント(南側)
------------クマノミパラダイス
--------沖永良部島
--------横当島
--------上ノ根島
--------宝島
--------小宝島
--------小島
--------平島
--------臥蛇島
--------徳之島
----------徳之島空港
--------霧島市
--------霧島山
----------御鉢
----------新燃岳
----------大幡池
--------志布志国家石油備蓄基地
------沖縄県
--------沖縄島
----------国頭村
------------
--------------奥ビーチ
--------------奥共同店
--------------奥交流館
------------安波
--------------安波ダム
--------------沖縄やんばる海水揚水発電所
------------国頭村森林公園
------------与那覇岳
--------------与那覇岳山道入口
--------------分岐1(与那覇岳)
--------------分岐2(与那覇岳)
--------------分岐3(与那覇岳)
--------------与那覇岳山頂
------------伊部岳
--------------伊武岳の入り口
--------------伊武岳の分岐1
--------------伊部岳の分岐2
--------------伊武岳のオキナワウラジロガシ
------------普久川ダム
------------安田
--------------安田ヶ島
--------------瀬嵩埼灯台
--------------安田漁港隣りの浜
--------------安田漁港
--------------安田小学校前面の湾
------------楚洲
------------JAL プライベートリゾート オクマ
------------宇嘉の浜
------------大石林山
------------辺戸岬
------------宇佐浜ビーチ
------------波止場食堂
------------辺土名漁港
------------謝敷の浜
----------東村
------------慶佐次
------------東村村民の森 つつじエコパーク
------------福地ダム
--------------福地ダム上流洪水吐き
------------東村ふれあいヒルギ公園
------------平良の浜
------------大泊橋
------------新川ダム
----------大宜味村
------------塩屋湾
--------------塩屋湾の干潟
------------津波の浜
------------津波の浜2
------------喜如嘉の浜
------------平南橋
------------平南橋の下の浜
------------大宜味村喜如嘉保育所
------------道の駅おおぎみ
------------ネクマチヂ岳
--------------ネクマチヂ岳入り口
------------喜如嘉の畑
------------塩屋富士
--------------塩屋富士の入り口
--------------休憩広場(660m地点)
--------------休憩広場(1020m地点)
--------------塩屋富士展望広場
------------大宜味風力発電実証研究設備
------------ホテル・サンセットビューインシャーベイ
----------名護市
------------久志
------------部瀬名
--------------ザ・ブセナテラス
----------------海中展望台
------------屋我地大橋
------------屋我地島
--------------オイロ
--------------古宇利大橋の袂の浜
------------名護博物館
------------有津の浜
------------オリオンビール 名護工場
------------ありつはし
------------名護城公園
--------------桜橋
--------------自然散策路
--------------展望台
--------------ガンジュー広場
------------羽地ダム
--------------ウジュル橋
------------為又
--------------クチーナ
------------ネオパークオキナワ
------------豊原
------------嵐山
--------------嵐山展望休憩所
------------奥武島
------------羽地内海
------------羽地中学前バス停
------------辺野古
------------大浦湾
------------ひんぷんがじまる
------------真喜屋ダム
------------嘉陽の浜
------------カヌチャベイリゾート
------------番越トンネル
------------屋部の浜
------------番越線(起点側)
------------ひがし食堂
------------GODAC 国際海洋環境情報センター
------------宇茂佐の浜
----------今帰仁村
------------古宇利島
--------------古宇利大橋
--------------古宇利港
--------------遠見番所後
--------------ハートロック
------------今帰仁城跡
------------乙羽岳森林公園
------------今泊
--------------今泊の浜
----------本部町
------------備瀬
--------------備瀬崎灯台
------------瀬底島
--------------アンチ浜
--------------瀬底ビーチ
--------------瀬底島実験所
--------------実験所前
--------------Fuu Cafe
------------ゴリラチョップ
------------On the beach LUE
------------MaxValue前
------------海洋博沖
------------本部商店街
------------花人峰
------------瀬底大橋
------------八重岳
------------渡久地港
------------海洋博公園
--------------熱帯ドリームセンター
--------------夕陽の広場
--------------美ら海水族館
--------------海洋文化館
------------谷茶公園
------------伊豆味
--------------Vintage Yard
------------さしみ亭
------------本部港
------------塩川
------------沖縄美ら島財団
------------高山食堂
----------宜野座村
------------漢那ヨリアゲの森緑地公園
------------漢那ビーチ
------------未来ぎのざ
------------福地川河口の海岸
------------漢那橋
------------漢那ダム
--------------めだかの学校
----------恩納村
------------瀬良垣
------------万座毛
------------真栄田岬
--------------裏真栄田
------------万座海岸
------------前兼久
------------沖縄県 県民の森
--------------キャンプ場
--------------冒険広場
------------なかむらそば
------------なかむらそばの前の浜
------------なかむらそばの前の島
------------ANAインターコンチネンタル万座ビーチリゾート
------------沖縄科学技術大学院大学(OIST)
--------------てだこ
--------------講堂
------------JAXA 沖縄宇宙通信所
------------安富祖の海岸
------------恩納村博物館
------------仲泊の浜
----------金武町
------------金武海岸
------------億首川河口
--------------シオマネキデッキ
--------------樹冠観察デッキ
--------------マングローブの森小径
------------伊芸サービスエリア
------------レッドビーチ
------------キングターコース
------------ざまみしょくどう
------------金武火力発電所
------------ブルービーチ
------------金武町の畑
----------読谷村
------------長浜
------------残波岬
--------------岬の駅
--------------残波岬灯台
------------渡具知ビーチ
------------やちむんの里
------------読谷村役場
------------都屋の浜
----------うるま市
------------勝連城跡
------------州崎
------------浮原島
------------津堅島
------------伊計島
--------------伊計島東の浜
--------------伊計島灯台
------------マンタ公園
------------倉敷ダム
------------海中道路
------------藪地島
------------浜比嘉島
------------浜比嘉大橋
------------平安座島
------------石川岳
--------------石川岳山頂
--------------友愛の池
--------------ターザン広場
--------------城の展望台
--------------休憩テラス
------------石川石炭火力発電所
------------うるま市民の森公園
------------ろくごうばし
------------野鳥の森自然公園
------------具志川火力発電所
------------天願川河口
------------天願川(下流)
------------具志川漁港
------------港原橋
------------宮城島
--------------宮城島の海岸1
--------------宮城島の海岸2
------------照間海岸
------------平安座海中大橋
------------具志川の海岸
------------饒辺橋
------------饒辺橋の下の浜
------------具志川の海岸2
------------石川漁港
------------具志川スイミングスクール
------------みどり町の公園1
------------市民広場
------------うるま市役所
------------津堅島北のリーフ
------------南浮原島
------------浮原島北のリーフ
----------沖縄市
------------泡瀬
--------------人口堤裏
------------沖縄県総合運動公園
--------------体育館
--------------水泳プール
------------コザ ミュージックタウン
------------東南植物楽園
------------沖縄こどもの国
------------与儀
------------知花城址
------------コッコロコハウス
------------ちゃんぷる〜市場
------------沖縄市立郷土博物館
------------沖縄市立郷土博物館の隣の広場
------------比屋根湿地
------------海邦公園
------------八重島公園
------------沖縄市民会館
------------たまご屋
----------嘉手納町
------------シーサイドレストラン
------------水釜
--------------水釜ポイント
--------------比謝川河口
----------北谷町
------------砂辺
--------------浄水場前北側
--------------ふぁぶ
--------------浜屋そば
--------------No.1ポイント
------------美浜
--------------サンセットビーチ
--------------アラハビーチ
----------宜野湾
------------宜野湾マリーナ外側
------------宜野湾漁港北側
------------嘉数高台公園
------------大謝名
------------生地のスーパーしゃりま
------------はごろも市場
------------ドンキホーテ
------------沖縄コンベンションセンター
------------沖縄国際大学
------------普天間飛行場
----------北中城村
------------あやかりの杜
------------北中城村のヒマワリ畑
------------北中城村立北中城中学校
------------北中城村中央公民館
------------イオンライカム
----------中城村
------------
------------中城湾(渡口)
------------吉の浦公園
------------中城モール裏のビーチ
------------中城PA
------------吉の浦火力発電所
----------西原町
------------琉球大学
--------------風樹館:琉球大学資料館
--------------球陽橋
--------------千原池
--------------理学部
--------------琉球大学図書館
--------------農学部
------------西原マリンパーク
------------沖縄キリスト教短期大学
------------琉球大学医学部
----------浦添市
------------牧港
--------------空寿崎
--------------牧港漁港
--------------ムーチョ(スペイン料理)
--------------沖縄電力牧港火力発電所
--------------沖縄電力本社
--------------浦添市立港川小学校
--------------まつば公園
------------内間
--------------内間西公園
--------------内間東公園
--------------コンタディーナ
--------------内間小学校
------------当山
--------------浦添大公園
----------------干支橋
------------勢理客
--------------勢理客シーサー通り
------------西洲
------------宮城
--------------みのり幼稚園
--------------大宮公園
------------伊祖
--------------伊祖(バス停)
--------------伊祖公園
--------------伊祖城址
------------浦添市美術館
------------浦添市陸上競技場
------------泉小公園
------------JSS浦添
----------那覇市
------------首里末吉町
--------------末吉公園
----------------滝見橋
----------------花見橋
----------------末吉宮
----------------末吉公園の亀甲墓
--------------末吉東児童公園
------------首里石嶺町
--------------御殿山
------------首里金城町
--------------金城ダム
--------------首里城
------------首里儀保町
------------安謝
--------------安謝交差点
--------------安謝東原公園
------------銘苅
--------------ガジュマル公園
--------------銘苅の湿地
--------------銘苅じんじん広場
--------------銘苅てんとうむし公園
--------------なは市民協働プラザ
--------------安岡中学校
--------------銘苅小学校
--------------銘苅墓跡群
------------おもろまち
--------------新都心公園
--------------沖縄県立博物館・美術館
--------------おもろ天空橋
--------------那覇市役所仮庁舎
--------------黄金森公園
--------------NHK沖縄放送局
--------------おもろまち駅(ゆいレール)
--------------那覇市上下水道局、みずプラッサ
--------------那覇市緑化センター
--------------沖縄振興開発金融公庫本店ビル
--------------おもろ花風橋
--------------沖縄総合事務局
------------天久
--------------那覇国際高校
--------------天久ちゅらまち公園
--------------琉球新報
--------------プリン山公園
--------------天久緑風公園
--------------那覇市立天久小学校
------------
--------------崇元寺公園
--------------那覇市立泊小学校
------------前島
--------------泊大橋
--------------とまりん
----------------フェリーざまみ
----------------フェリーあぐに
----------------フェリーニューくめしま
----------------泊ふ頭北岸船客待合所
--------------とまり緑地
--------------泊港橋
------------古島
--------------出雲大社 沖縄分社
--------------古島インターチェンジ
--------------那覇市立病院
--------------市立病院前(ゆいレール)
------------牧志
--------------国際通り(牧志)
----------------市場本通り
----------------平和通り
----------------てんぶす那覇
----------------えびす通り
--------------桜坂劇場
--------------希望ヶ丘公園
--------------牧志駅(ゆいレール)
--------------美栄橋駅(ゆいレール)
--------------十貫瀬橋
------------久茂地
--------------りゅうぼう パレットくもじ
--------------県庁前駅(ゆいレール)
--------------沖縄テレビ放送本社
--------------RBC・QABメディアセンタービル
------------泉崎
--------------沖縄県庁
--------------那覇市役所
--------------那覇バスターミナル
--------------沖縄県議会
------------与儀
--------------沖縄県立看護大学
--------------与儀公園
------------奥武山町
--------------世持神社
--------------沖縄セルラースタジアム那覇
--------------沖縄セルラーパーク那覇
--------------奥武山公園
----------------奥武山総合運動場
----------------奥武山総合運動場の池
----------------県立奥武山水泳プール
----------------奥武山公園売店C棟
----------------奥武山弓道場
--------------弁辨天宮
--------------沖宮
--------------奥武山公園駅(ゆいレール)
------------金城
--------------通堂
--------------小禄金城公園
--------------小禄さくら公園
------------港町
--------------泊漁港
--------------泊いゆまち
--------------港町食堂
------------旭町
--------------おきでん那覇ビル
--------------沖縄県旭町会館
------------国場
--------------国場人道橋
--------------こくばめーばる公園
--------------新橋
------------空港沖
------------パンダ餃子
------------那覇空港
--------------那覇空港国際線旅客ターミナルビル
------------壷屋通り
--------------壺屋焼物博物館
------------那覇市中心商店街にぎわい広場
------------ガーブ川
--------------ガーブ川(与儀公園)
--------------ガーブ川(神原小学校)
------------大道
------------那覇うみそらトンネル
------------那覇空港駅
------------真嘉比中央公園
------------那覇軍港
------------曙小学校
------------キャンプキンザー
------------漫湖
------------漫湖公園
------------沖縄県立芸術大学(首里崎山キャンパス)
------------ピエニュー
------------安里川
------------松川公園
------------真和志小学校
------------沖縄大学
------------那覇市民会館
------------沖縄産業支援センター
------------北明治橋
------------壺川駅(ゆいレール)
------------国際物流拠点産業集積地域那覇地区
------------波上宮
------------三重城港
------------小禄高等学校
------------真嘉比小学校
------------那覇防波堤(南防波堤)
------------中之橋
------------明治橋
------------小禄駅(ゆいレール)
------------新国場橋
------------男女共同参画センター てぃるる
------------那覇市民体育館
----------与那原町
------------中城湾(与那原町)
------------与那古浜公園
------------マリンプラザあがり浜
------------東崎都市緑地(イルカ公園)
----------豊見城市
------------海軍壕公園
------------豊崎にじ公園
------------瀬長島
------------三角池
------------道の駅 豊崎
------------とみとん
------------沖縄県警察運転免許センター
------------とよみ大橋
------------爬龍橋
------------漫湖水鳥・湿地センター
------------豊見城市中央公民館
------------豊見城総合公園
------------あしびなー
------------岡波島
------------岡波島となりのリーフ
------------嘉数
------------瀬長島沖のリーフ
----------南風原町
------------イオン南風原ジャスコ
----------南城市
------------浜辺の茶屋の前
------------森のカフェ くるくま
------------久高島
------------グスクロード公園
------------佐敷
--------------シュガーホール裏の干潟
------------奥武島
--------------奥武漁港
------------奥武橋
------------大城城址
------------糸数城址
------------玉城城跡
------------田空休憩施設
------------垣花城跡
------------港川の海岸
------------港川漁港
------------玉泉洞
------------南城市沖のリーフ
------------コマカ島
------------久高島北東のリーフ
----------糸満市
------------喜屋武岬
--------------喜屋武岬灯台
------------米須
--------------スーサード
--------------スーサイド(南側)
--------------大渡海岸
------------道の駅いとまん
------------報得川
------------平和創造の森公園
------------ルカン礁
------------糸満市沖のリーフ
----------八重瀬町
------------具志頭・玻名城海岸
------------具志頭遊歩道
--------------海岸側入口
------------具志頭社会体育館
------------具志頭農村環境改善センター
----------チービシ
------------ラビリンス
------------神山島
------------ナガンヌ島
------------クエフ島
--------硫黄鳥島
--------伊是名島
--------伊江島
----------城山
----------カーサ・ビエント
----------リリーフィールド公園
----------GIビーチ
----------伊江港
--------慶良間諸島
----------座間味島
------------古座間味ビーチ
------------ブツブツ
------------男岩
------------アイダー
------------座間味ダム
------------座間味港
------------ビーチコマー
------------内川
------------外白崎の対面
------------牛の島
------------いびぬめえ
------------座間味港脇の砂浜
------------座間味港緑地公園
------------マリリンの像
------------阿真港
------------阿真港脇の砂浜
------------阿真港脇の拝所
------------阿真ビーチ
------------阿真港脇の公園
------------平和之塔
------------留加比の鼻
------------座間味クリーンセンター
------------高月山園地
------------マリリンの像の隣の浜
----------安室島
------------安室島の夫婦岩
------------安室島牛潮
----------嘉比島
----------阿嘉島
------------阿嘉漁港(東)
------------阿嘉漁港(西)
------------阿嘉大橋
----------安慶名敷島
------------安慶名敷島の南東の岩礁
----------屋嘉比島
----------渡嘉敷島
------------渡嘉志久湾
--------------渡嘉志久ビーチ
--------------海人ポイント
------------ヒジュシポイント
------------ハナレビーチ前
------------灯台下
------------カミグーポイント
------------V(ブイ)
------------アリガーケーブル
------------野崎(ダイビングポイント)
------------アラリ(ダイビングポイント)
------------離島(パナリ)
------------前岳
------------中頭の浜
------------ウン島
------------ウン島の南の岩礁
------------渡嘉敷島の南端
------------浦の浜の北の浜
------------野喜良崎
----------ウチザン礁
----------慶留間島
------------アザナムイ展望台下の浜
----------名瀬
----------平瀬
----------外地島
----------モカラク島
--------久米島
----------比屋定バンダ
--------水納島
--------宮古島
----------八重干瀬
----------池間島
----------大神島
----------伊良部島
----------下地島
------------下地島空港
----------来間島
----------下崎沖
----------東平安名崎
--------多良間島
--------石垣島
----------バンナ公園
------------エメラルドの海が見える展望台
------------清風橋
------------碧橋
----------白保
------------白保村の浜にある港
----------浦底湾
------------浦底湾の北側ビーチ
----------御神崎灯台
----------平久保
------------平久保崎沖
------------平久保小学校
------------平久保崎灯台
------------平久保川
--------------平久保川河口
----------宮良
------------宮良川上流
----------名蔵湾
----------川平
------------川平湾
------------パーキング1
------------トミーのパン
------------やまばれーはし
------------沖縄県水産海洋研究センター石垣支所
----------米原
------------ヤエヤマヤシの遊歩道
----------登野城
------------登野城漁港
----------伊原間
------------はんな岳
------------伊原間湾
------------玉取崎沖
----------真栄里
------------全日空ホテル前
----------安良崎
----------大川
------------あやぱに・モール
----------吹通橋
----------八島
------------八島公園
------------サザンゲートブリッジ
----------石垣港
----------浜崎町
------------石垣市民会館
------------新栄公園
------------浜崎緑地
----------美崎町
------------石垣市消防本部
----------於茂登岳
------------於茂登岳登山道入り口
----------米原ダブルリーフ
----------野底
------------野底崎
------------野底岳
--------------野底岳登山道入口
--------------野底岳山頂
----------桃里
------------伊野田沖
------------伊野田
------------野原崎
----------於茂登トンネル
----------石垣空港(〜2013年)
----------石垣空港
--------石西礁湖
----------シモビシ
------------C12
------------D08
------------D09
------------D10
------------D11
------------D12
------------D16
------------D17
------------D18
------------D19
------------E08
------------E09
------------E10
------------E11
------------E12
------------E13
------------E14
------------E16
------------E17
------------E18
------------E19
------------F11
------------F12
------------F14
------------F15
------------F17
------------F18
------------F19
------------G10
------------G12
------------G13
------------G14
------------G16
------------G17
------------G18
------------G19
------------H09
------------H10
------------H12
------------H13
------------H14
------------H15
------------H16
------------H17
------------H18
------------H19
------------I12
------------J12
--------黒島
----------西側
--------波照間島
----------星空荘
----------波照間空港
----------南共同売店
--------竹富島
----------北東
--------西表島
----------上原地区
------------まるまビーチ沖
------------まるまビーチ
----------船浮湾
----------白浜
------------白浜小学校
--------南大東島
----------山羊道沖
--------野甫島
--------具志川島
--------伊平屋島
--------粟国島
----------筆ん崎
----------粟国港
----------粟国港緑地
----------民宿波止場
----------民宿風月
----------民宿寿
----------粟国村離島振興総合センター
----------粟国村観光協会
----------粟国村消防団
----------粟国島灯台
----------長浜ビーチ
----------観音堂
----------浜売店
----------粟国村立粟国小学校
----------南側の海岸1
----------南側の海岸2
----------ヤマトゥガー
--------水納島(多良間村)
--------渡名喜島
----------渡名喜村役場
----------大和食品
----------あがり浜
----------あがり浜の北の浜1
----------あがり浜の北の浜2
----------シドの崎
----------ニシバラガー(北の井戸)
----------義中山
----------ニシバラドゥン
----------カイヤ跡
----------ふくぎ食堂
----------ターミナル食堂
----------信号のある交差点
----------水産物集出荷施設
----------渡名喜港
----------渡名喜ターミナル
----------渡名喜幼・小・中学校
----------西森
----------タカタ浜
----------グルクの崎
----------ヲム
----------島尻崎
----------ウー浜
----------ユブク浜
----------ナガバラ崎
----------入砂島
----------ユブク浜の前の岩
----------トンジ
----------民宿となき
----------シドの崎の沖の岩
----------大岳
----------屏風岩
----------アンジェーラ浜
----------タカタンシ
----------ナガバラ崎南の浜
----------大本田(ウーンダ)展望台
----------大本田(ウーンダ)東屋
----------ヲムの崎
----------大本田(ウーンダ)
----フィリピン
------ルソン島
--------ピナトゥボ山
--------ソーサゴン
----------ソーサゴン湾
----------サワンガ
------ボホール島
--------カビラオ島
------セブ島
--------ペスカドール島
--------モアルボアル
----------タリサイ
----インドネシア
------ジャカルタ近郊
------セリブ諸島(ジャカルタ寄り)
------セリブ諸島
------バリ島
--------プムトゥラン
------ジャカルタ
----パラオ
------ブルーコーナー
------岩山湾
------コロール島
--------パラオ国際サンゴセンター
--------SoraCabalenFastFood
--------BEMERMII Burgers&Fries
----マーシャル諸島共和国
------マジュロ環礁
----アメリカ合衆国
------フロリダ州
--------オーランド空港
--------St. Augastine
----------サンマルコス砦
--------ケネディースペースセンター
--------ディズニーワールド フロリダ
--------ヴェニスビーチ
------ハワイ州
--------オアフ島
----------Angler's Reef
----------Kewalo Pipe Reef
----------ホノルル
------------ワイキキ水族館
----スリランカ
------ハクマナ
------Pinnawala Elephant Orphanage
----オーストラリア
------グレートバリアリーフ
--------エイジンコートリーフ
--------グリーン島
------タウンズビル
--------マグネティック島
----------Radical Bay
--------キャッスルヒル
--------オーフィアス島
----------Pioneer湾
--------Pelorus島
----------南東
----ドイツ
------バイエルン州
--------ニュルンベルグ
----------中央広場
----------聖母教会
----------白い塔
----------ブルグホテル
----------カイザーブルク
--------ローテンブルグ
----------ローテンブルグ市庁舎
--------ディンケンスビュール
----------Neue Promenade
----------Hotel Dinkelsbühler hof
----------堀の中の道
----------聖ゲオルグ教会
----------ゼークリンガー門
--------ネルトリンゲン
----------聖ゲオルグ教会
--------ミュンヘン
----------聖母教会
----------マリエン広場
----------新市庁舎
----フランス領ポリネシア
------ランギロア環礁
--------北側環礁内1
------モーレア島
--------モーレア島のリーフ1
--------北側真ん中の半島
----カナダ
------コロンビア大平原
------バンフ
------トロント空港
----中国
------香港
--------中環
----------スターフェリーピア
------------スターフェリー
----グアム
------タモンビーチ
----
----太陽
----金星
--分類検索
----藍色植物門
------藍藻綱
----紅色植物門
------紅藻綱
--------真正紅藻亜綱
----------スギノリ目
------------イワノカワ科
------------ミリン科
--------------キリンサイ
----------サンゴモ目
----渦鞭毛植物門
----不等毛植物門
------褐藻綱
--------ヒバマタ目
----------ホンダワラ科
------------ラッパモク
--------カヤモノリ目
----------カヤモノリ科
------------フクロノリ
------------カゴメノリ
--------アミジグサ目
----------アミジグサ科
----緑藻植物門
------アオサ藻綱
--------カサノリ目
----------カサノリ科
------------イソスギナ
------------カサノリ
----------ダジクラズス科
------------フデノホ
------------ウスガサネ
--------ハネモ目
----------サボテングサ属
----------ヨレヅタ
----------ハウチワ属
--------ミドリゲ目
----------バロニア科
------------オオバロニア
------------キッコウグサ
--------ヒビミドロ目
----------ランソウモドキ科
--------アオサ目
----------アオサ科
------緑藻綱
--------ミル目
----------ミル科
----コケ植物門
------マゴケ亜綱
--------スギゴケ目
----------スギゴケ科
----小葉植物門
------ヒカゲノカズラ綱
--------ヒカゲノカズラ科
----シダ門
------ヘゴ科
--------ヘゴ
------ウラボシ科
--------ビカクシダ
--------ヌカボシクリハラン
------サンショウモ科
--------オオサンショウモ
------チャセンシダ科
--------シマオオタニワタリ
------ウラジロ科
--------コシダ
------スジヒトツバ科
--------スジヒトツバ
------トクサ科
--------スギナ
------イワヒバ科
--------オニクラマゴケ
------ツルシダ科
--------タマシダ
----ソテツ門
------ソテツ
----イチョウ門
------イチョウ目
--------イチョウ科
----------イチョウ
----球果植物門
------スギ目
------マキ目
------イチイ目
------マツ目
--------コウヤマキ科
----------コウヤマキ
--------マツ科
----------リュウキュウマツ
----------シロマツ
----------ヒマラヤスギ
--------マキ科
----------イヌマキ
--------イチイ科
----------イチイ
--------ヒノキ科
----------センジュ
----------スギ
----------ラクウショウ
----------イブキ
----------アケボノスギ
--------ナンヨウスギ科
----------ナンヨウスギ属
----被子植物門
------スイレン目
--------スイレン科
------モクレン類
--------コショウ目
----------コショウ科
------------サダソウ
--------クスノキ目
----------ロウバイ科
------------ロウバイ
----------クスノキ科
------------シバニッケイ
------------シロダモ
------------クスノキ
------------ヤブニッケイ
------------アボカド
--------モクレン目
----------バンレイシ科
------------チェリモヤ
------------イケリンゴ
----------モクレン科
------------モクレン
------------タイサンボク
------Clade Monocots
--------オモダカ目
----------サトイモ科
------------クワズイモ
------------ホウライショウ属
------------マングーカズラ
------------ムサシアブミ
------------ボタンウキクサ
------------ヒトデカズラ
----------シオニラ科
------------ボウバアマモ
------------リュウキュウアマモ
------------ウミジグサ属
----------トチカガミ科
------------リュウキュウスガモ
------------ウミヒルモ
------------オオカナダモ
----------ヒルムシロ科
------------ヒルムシロ
----------ベニアマモ科
--------タコノキ目
----------タコノキ科
------------ビヨウタコノキ
------------アダン
--------ユリ目
----------ユリ科
------------ジャノヒゲ
------------テッポウユリ
------------スズラン
------------ネギ
------------ヤブラン
------------ノシラン
------------キキョウラン
------------ブルビネ フルテッセンス
------------ニホンスイセン
------------チューリップ属
----------サルトリイバラ科
------------ハマサルトリイバラ
------------サツマサンキライ
------------サルトリイバラ
--------クサスギカズラ目
----------ラン科
------------ナンゴクネジバナ
------------シラン
----------ヒガンバナ科
------------アマリリス
------------ハマユウ
------------ゼフィランサス ロゼア
------------ゼフィランサス シトリナ
------------ヒガンバナ
------------タマスダレ
------------ヒメノカリス
----------クサスギカズラ科
------------トックリラン
------------テキーラリュウゼツラン
------------サンセベリア
------------エネケン
------------アガベ アッテヌアータ
------------コルディリネ属
------------アロエ属
----------アヤメ科
------------グラジオラス属
------------シャガ
------------Neomarica longifolia
------------アノマテカ
------------ニワゼキショウ
------------キバナニワゼキショウ
------ツユクサ類
--------ヤシ目
----------ヤシ科
------------ヤエヤマヤシ
------------シンノウヤシ
------------マニラヤシ
------------ビロウ
------------ユスラヤシ
------------ナツメヤシ
------------ワシントンヤシモドキ
------------ヴィーチア・アレキナ
------------ビンロウジュ
------------ダイオウヤシ
------------ワシントンヤシ
------------トックリヤシモドキ
------------トックリヤシ
------------ココヤシ
------------ラタニア属
------------ブラジルヤシ
------------クロツグ
--------ツユクサ目
----------ツユクサ科
------------ムラサキツユクサ
------------ムラサキゴテン
------------シマフムラサキツユクサ
----------ミズアオイ科
------------ホテイアオイ
------------ナガバミズアオイ
--------イネ目
----------パイナップル科
------------パイナップル
----------カヤツリグサ科
------------シュロガヤツリ
----------イネ科
------------イネ
------------タケ亜科
------------サトウキビ
------------ススキ
------------トウモロコシ
------------リュウキュウチク
------------オカメザサ
------------クマザサ
------------パープルファウンテングラス
----------ガマ科
------------ヒメガマ
--------ショウガ目
----------カンナ科
------------ダンドク
------------カンナ属
----------バショウ科
------------島バナナ
------------ハンギング・ヘリコニア
------------オオギバショウ
----------ゴクラクチョウカ科
------------タビビトノキ
------------ゴクラクチョウカ属
----------ショウガ科
------------ゲットウ
------------フクジンソウ
------------コモスス・ベイケリ
------------ミョウガ
------------シュクシャ
------真正双子葉類
--------キンポウゲ目
----------メギ科
------------ナンテン
------------ヒイラギナンテン
----------アケビ科
------------ムベ
----------キンポウゲ科
------------アネモネ
------------リュウキュウボタンヅル
------------クロタネソウ属
--------ヤマモガシ目
----------ハス科
------------ハス
----------ヤマモガシ科
------------バンクシア属
------コア真正双子葉類
--------ユキノシタ目
----------ベンケイソウ科
------------カランコエ
------------ハママンネングサ
------------キンチョウ
------------セイロンベンケイ
----------マンサク科
------------イスノキ
------------マンサク
----------フウ科
------------モミジバフウ
----------ユズリハ科
------------ヒメユズリハ
--------ナデシコ目
----------ヒユ科
------------ノゲイトウ
------------ケイトウ
------------アカバセンニチコウ
----------ツルムラサキ科
----------サボテン科
------------サンカクサボテン
------------マミラニア属
----------ナデシコ科
------------コハコベ
----------モウセンゴケ科
------------コモウセンゴケ
----------オシロイバナ科
------------ブーゲンビリア
----------ヤマゴボウ科
------------ヨウシュヤマゴボウ
------------ジュズサンゴ
----------イソマツ科
------------ルリマツリ
------------ウコンイソマツ
----------タデ科
------------アサヒカズラ
------------ウミブドウ
------------ギシギシ
------------ツルソバ
------------ハマベブドウ
------------ヒメツルソバ
----------スベリヒユ科
------------マツバボタン
--------ビャクダン目
----------ボロボロノキ科
------------ボロボロノキ
----------ツチトリモチ科
------------キイレツチトリモチ
------真正バラ類I
--------ニシキギ目
----------ニシキギ科
------------ハリツルマサキ
------------ツリバナ
--------カタバミ目
----------ホルトノキ科
------------ホルトノキ
----------カタバミ科
------------ムラサキカタバミ
------------ゴレンシ
------------カタバミ
--------キントラノオ目
----------トウダイグサ科
------------テイキンザクラ
------------オオバギ
------------アカギ
------------ハナキリン
------------アカリファ ウィルケシアーナ
------------シマニシキソウ
------------ヘンヨウボク属
------------ベニヒモノキ
------------オオシマコバンノキ
------------ショウジョウボク
------------ククイノキ
------------ナガエコミカンソウ
------------アカメガシワ
------------クスノハガシワ
------------グミモドキ
------------スナバコノキ
------------Euphorbia abyssinica
----------オトギリソウ科
------------フクギ
------------ビヨウヤナギ
------------テリハボク
----------キントラノオ科
------------コウシュンカズラ
----------トケイソウ科
----------ヒルギ科
------------ヤエヤマヒルギ
------------オヒルギ
------------メヒルギ
----------スミレ科
------------スミレ
------------リュウキュウコスミレ
------------パンジー
--------ウリ目
----------ウリ科
------------オキナワスズメウリ
------------ニガウリ
------------カボチャ属
----------シュウカイドウ科
------------シュウカイドウ属
--------ブナ目
----------モクマオウ科
------------モクマオウ属
--------------グラウカモクマオウ
----------ブナ科
------------アベマキ
------------スダジイ
------------オキナワウラジロガシ
------------クリ
------------アラカシ
------------クヌギ
------------マテバシイ
------------アマミアラカシ
----------カバノキ科
------------ハンノキ
------------イヌシデ
----------ヤマモモ科
------------ヤマモモ
--------マメ目
----------マメ科
------------マメ亜科
--------------タマリンド
--------------デイゴ
--------------フジ属
----------------フジ
--------------ホウオウボク
--------------キングサリ
--------------オオゴチョウ
--------------クズ
--------------タイワンクズ
--------------アメリカデイゴ
--------------シロツメクサ
--------------ソウシジュ
--------------ソラマメ
--------------ヤハズエンドウ
--------------モクセンナ
--------------オオバナソシンカ
--------------オカミズオジギソウ
--------------ハマアズキ
--------------シナガワハギ
--------------ナンバンサイカチ
--------------オオベニゴウカン
--------------イソフジ
--------------コメツブツメクサ
--------------クロヨナ
--------------イルカンダ
--------------ハリエンジュ
--------------タカナタマメ
--------------ハカマカズラ
--------------タシロマメ
--------------コウシュンモダマ
--------------チョウマメ
--------------ムラサキソシンカ
------------ネムノキ亜科
--------------オジギソウ
--------------ギンネム
--------------ビルマネム
----------ヒメハギ科
------------カスミヒメハギ
--------バラ目
----------アサ科
------------カラハナソウ
----------グミ科
------------ツルグミ
----------クワ科
------------ガジュマル
------------イヌビワ
------------アコウ
------------インドゴムノキ
------------オオイタビ
------------イチジク
------------ベンガルボダイジュ
------------シマグワ
------------カジノキ
------------パンノキ
------------インドボダイジュ
----------バラ科
------------サクラ属
--------------カンヒザクラ
--------------シダレザクラ
--------------ウメ
--------------ヘントウ
--------------ソメイヨシノ
------------バラ属
------------ビワ
------------シャリンバイ
------------ホウロクイチゴ
------------アメリカザイフリボク
------------リュウキュウイチゴ
------------リュウキュウバライチゴ
------------ユキヤナギ
------------フユイチゴ
----------ニレ科
------------ケヤキ
------------エノキ
----------イラクサ科
------------ハドノキ
------真正バラ類II
--------フウロソウ目
----------フウロソウ科
------------アメリカフウロ
--------フトモモ目
----------シクンシ科
------------モモタマナ
------------インドシクンシ
----------ミソハギ科
------------オオバナサルスベリ
------------ザクロ
------------サルスベリ
------------シマサルスベリ
----------ノボタン科
------------ノボタン
------------オオバシコンノボタン
----------フトモモ科
------------ブラシノキ
------------バンジロウ
------------タチバナアデク
----------アカバナ科
------------マツヨイグサ属
------------ヒルザキツキミソウ
------------ユウゲショウ
--------クロッソソマ目
----------ミツバウツギ科
------------ゴンズイ
------------ショウベンノキ
--------アブラナ目
----------アブラナ科
------------ナズナ
------------キャベツ
------------カラシナ
------------ダイコン
------------ハマダイコン
----------パパイヤ科
------------パパイヤ
----------フウチョウソウ科
------------セイヨウフウチョウソウ
------------ギョボク
----------ノウゼンハレン科
------------キンレンカ
--------アオイ目
----------アオイ科
------------パンヤ亜科
--------------トックリキワタ
--------------パンヤノキ
------------ブッソウゲ
------------Dombeyoideae亜科
--------------ドンベヤ ワリチー
------------オオハマボウ
------------サキシマフヨウ
------------タチアオイ
------------マロウ
------------アメリカネリ
------------スイレンボク
--------ムクロジ目
----------ウルシ科
------------ハゼノキ
----------センダン科
------------センダン
----------ミカン科
------------クロウエア サリグナ
------------ユズ
------------クロウエア エクサラータ
------------カラタチ
----------ムクロジ科
------------タイワンモクゲンジ
------------カエデ属
------------フウセンカズラ
----------ニガキ科
------------ニガキ
------キク類
--------ミズキ目
----------ミズキ科
------------ヤマボウシ
------------アオキ
----------アジサイ科
------------セイヨウアジサイ
------------ガクアジサイ
--------ツツジ目
----------モッコク科
------------ヒサカキ
------------モッコク
------------ハマヒサカキ
----------ツリフネソウ科
------------アフリカホウセンカ
----------カキノキ科
------------カキノキ
------------ヤエヤマコクタン
----------ツツジ科
------------リュウキュウアセビ
------------ギーマ
------------セイシカ
----------サガリバナ科
------------サガリバナ
------------ゴバンノアシ
----------サクラソウ科
------------ハマボッス
------------ルリハコベ
----------アカテツ科
------------オオバアカテツ
----------ハイノキ科
----------ツバキ科
------------イジュ
------------ヤブツバキ
------------サザンカ
----------エゴノキ科
------------エゴノキ
------真正キク類I
--------ムラサキ科
----------モンパノキ
--------リンドウ目
----------キョウチクトウ科
------------マダガスカルジャスミン
------------プルメリア属
------------オキナワキョウチクトウ
------------オオバナアリアケカズラ
------------キバナキョウチクトウ
------------ニチニチソウ
------------キョウチクトウ
------------ホウライカガミ
------------トウワタ
------------サクララン
----------アカネ科
------------ベニデマリ
------------サンタンカ
------------ヤエヤマアオキ
------------クチナシ
------------ヘクソカズラ
------------ルリミノキ属
--------------マルバルリミノキ
--------------オオバルリミノキ
------------コーヒーノキ
------------ナガバハリフタバムグラ
------------コンロンカ
------------ナガミボチョウジ
--------シソ目
----------キツネノマゴ科
------------ベンガルヤハズカズラ
------------ベニツツバナ
------------コダチヤハズカズラ
----------ノウゼンカズラ科
------------コガネノウゼン
------------タベブイア インペティギノーサ
------------キダチベニノウゼン
------------ローソクノキ
------------ソーセージノキ
------------タベブイア ヘテロフィラ
------------カエンカズラ
------------フクベノキ
------------ノウゼンカズラ
----------ハマウツボ科
------------ナンバンギセル
----------シソ科
------------コリウス属
------------サルビア
------------パイナップルセージ
------------フブキバナ
------------ホトケノザ
------------マンネンロウ
------------Plectranthus ornatus
------------Origanum
------------ヒメキランソウ
------------ワタチョロギ
------------メボウキ
------------アメジストセージ
------------ネコノヒゲ
----------モクセイ科
------------オリーブ
------------ヒイラギ
----------オオバコ科
------------オオバコ
------------ツボミオオバコ
----------ゴマノハグサ科
------------オオイヌノフグリ
------------ハマジンチョウ
------------ハナチョウジ
------------トキワハゼ
----------クマツヅラ科
------------ランタナ
------------ビジョザクラ
------------ムラサキシキブ
------------キバノタイワンレンギョウ
------------イワダレソウ
------------コムラサキ
------------タイワンレンギョウ
------------ベンケイクサギ
------------イボタクサギ
------------ヒメクマツヅラ
------------アレチハナガサ
------------ヒギリ
------------クサギ
------------ハマゴウ
--------ナス目
----------ヒルガオ科
------------グンバイヒルガオ
------------モミジヒルガオ
------------キアサガオ
------------アサガオ
------------Evolvulus pilosus
------------ノアサガオ
----------ナス科
------------トマト
------------ホオズキ
------------ソランドラ・マキシマ
------------チョウセンアサガオ
------------ギンバイソウ
------------コダチチョウセンアサガオ
------------ワルナスビ
------------タバコ
------------センナリホオズキ
------------パプリカ
------------ジャガイモ
------------ニオイバンマツリ
------真正キク類II
--------モチノキ目
----------モチノキ科
------------クロガネモチ
--------キク目
----------キク科
------------アメリカハマグルマ
------------オオハルシャギク
------------オニタビラコ
------------コセンダングサ
------------テンニンギク
------------シマアザミ
------------セイタカアワダチソウ
------------チシャ
------------チョウセンアザミ
------------ツワブキ
------------ノースポール
------------ヒマワリ
------------メキシコサワギク
------------モクビャッコウ
------------ヨモギ
------------ガザニア属
------------コウオウソウ属
------------タンポポ属
--------------セイヨウタンポポ
------------テリハノギク
------------ヤロウ
------------ウスベニニガナ
------------フキ
------------ハマニガナ
------------ニトベギク
------------オキナワギク
------------ホソバワダン
------------ニシヨモギ
------------カミツレ
----------キキョウ科
------------ホタルブクロ
----------クサトベラ科
------------クサトベラ
--------セリ目
----------セリ科
------------ハマウド
------------オヤブジラミ
------------ニンジン
------------ボタンボウフウ
----------ウコギ科
------------ヤドリフカノキ
------------ヤツデ
------------キヅタ
------------セイヨウキヅタ
----------トベラ科
------------トベラ
----子囊菌門
------盤菌類
--------チャシブゴケ目
----------アンチゴケ科
----担子菌門
------菌蕈類
--------ハラタケ目
----------ヒトヨタケ科
------------ザラエノヒトヨタケ
--------ヒダナシタケ目
----------サルノコシカケ科
------------カワラタケ
------キクラゲ目
----有毛根足虫門
------肉質虫亜門
--------タマウキガイ目
----------ゼニイシ属
----海綿動物門
------尋常海綿綱
--------ザラカイメン科
----------ザラカイメン
--------Chalinidae科
----------Chalinula nematifera
----刺胞動物門
------花虫綱
--------六放サンゴ亜綱
----------イシサンゴ目
------------incertae sedis(所属科不明)
--------------ミズタマサンゴ属
----------------ミズタマサンゴ
--------------タバサンゴ属
----------------オオタバサンゴ
--------------キクメイシモドキ属
----------------キクメイシモドキ
------------ムカシサンゴ科
--------------ムカシサンゴ属
----------------ムカシサンゴ
----------------ヒメムカシサンゴ
------------ハナヤサイサンゴ科
--------------ハナヤサイサンゴ属
----------------ハナヤサイサンゴ
----------------ヘラジカハナヤサイサンゴ
--------------トゲサンゴ属
----------------トゲサンゴ
----------------オンナトゲサンゴ(仮称)
--------------ショウガサンゴ属
----------------ショウガサンゴ
------------ミドリイシ科
--------------コモンサンゴ属
----------------エダコモンサンゴ
----------------チヂミウスコモンサンゴ
----------------デーナイボコモンサンゴ
--------------ミドリイシ属
----------------アカジマミドリイシ
----------------ウスエダミドリイシ
----------------オヤユビミドリイシ
----------------キクハナガサミドリイシ
----------------クシハダミドリイシ
----------------コイボミドリイシ
----------------コユビミドリイシ
----------------サボテンミドリイシ
----------------スギノキミドリイシ
----------------スゲミドリイシ
----------------ツツハナガサミドリイシ
----------------ツツミドリイシ
----------------トゲスギミドリイシ
----------------トゲヅツミドリイシ
----------------トゲホソエダミドリイシ
----------------ムギノホミドリイシ
----------------ハナガサミドリイシ
----------------ハナバチミドリイシ
----------------ハリエダミドリイシ
----------------ヒメマツミドリイシ
----------------ホソエダミドリイシ
----------------マルヅツハナガサミドリイシ
----------------ヤスリミドリイシ
----------------ヤッコミドリイシ
----------------Acropora lutkeni
----------------ホソヅツハナガサミドリイシ
----------------Acropora parilis
----------------Acropora polystoma
----------------Acropora rosaria
----------------Acropora verweyi
--------------アナサンゴ属
--------------ニオウミドリイシ属
----------------ニオウミドリイシ
------------ハマサンゴ科
--------------ハマサンゴ属
----------------オオハマサンゴ
------------------オオハマサンゴの骨格
----------------コブハマサンゴ
------------------コブハマサンゴの骨格
----------------ハマサンゴ
------------------ハマサンゴの骨格
----------------パラオハマサンゴ
----------------フカアナハマサンゴ
------------------フカアナハマサンゴの骨格
----------------ベニハマサンゴ
----------------ユビエダハマサンゴ
--------------ハナガササンゴ属
----------------ハナガササンゴ
----------------マルアナハナガササンゴ
----------------Goniopora fruticosa
--------------アワサンゴ属
----------------ニホンアワサンゴ
------------ヤスリサンゴ科
--------------アミメサンゴ属
----------------ヤッコアミメサンゴ
------------ヒラフキサンゴ科
--------------シコロサンゴ属
----------------ハマシコロサンゴ
----------------コモンシコロサンゴ
----------------シコロサンゴ
----------------トガリシコロサンゴ
--------------ヒラフキサンゴ属
----------------ヒラフキサンゴ
--------------リュウモンサンゴ属
----------------リュウモンサンゴ
------------クサビライシ科
--------------クサビライシ属
----------------ネジレクサビライシ
----------------ヒラタクサビライシ
--------------トゲクサビライシ属
----------------トゲクサビライシ
--------------イシナマコ属
----------------イシナマコ
--------------パラオクサビライシ属
----------------パラオクサビライシ
--------------ヘルメットイシ属
----------------ヘルメットイシ
--------------ヤエヤマカワラサンゴ属
----------------ヤエヤマカワラサンゴ
--------------Lobactis属
----------------クサビライシ
------------Euphylliidae科
--------------アザミサンゴ属
----------------アザミサンゴ
------------------アザミサンゴ Gt(色彩型)
------------------アザミサンゴ Wt(色彩型)
------------------アザミサンゴ B(色彩型)
------------------アザミサンゴ Gs(色彩型)
----------------エダアザミサンゴ
--------------ナガレハナサンゴ属
----------------ナガレハナサンゴ
------------Lobophylliidae科
--------------キッカサンゴ属
----------------ヒラキッカサンゴ
--------------コハナガタサンゴ属
----------------コハナガタサンゴ
--------------ハナガタサンゴ属
----------------オオハナガタサンゴ
----------------Lobophyllia flabelliformis
--------------ヒラサンゴ属
----------------ヒラサンゴ
--------------ダイノウサンゴ属
----------------ダイノウサンゴ
------------オオトゲサンゴ科
--------------Faviinae亜科
----------------キクメイシ属
------------------Favia maritima
------------------スボミキクメイシ
------------サザナミサンゴ科
--------------ヒユサンゴ属
----------------ヒユサンゴ
----------------オンナヒユサンゴ(仮称)
--------------イボサンゴ属
--------------タバネサンゴ属
--------------ウスカミサンゴ属
----------------ウスカミサンゴ
--------------スジウミバラ属
----------------レースウミバラ
--------------カメノコキクメイシ属
----------------ゴカクキクメイシ
----------------カメノコキクメイシ属の1種
----------------シナキクメイシ
--------------コカメノコキクメイシ属
----------------パリカメノコキクメイシ
--------------ノウサンゴ属
----------------ヒラノウサンゴ
----------------ヒメノウサンゴ
--------------オオナガレサンゴ属
----------------オオナガレサンゴ
----------------Oulophyllia bennettae
--------------Phymastrea属
----------------オオマルキクメイシ
--------------トゲキクメイシ属
----------------フカトゲキクメイシ
--------------リュウキュウキッカサンゴ属
----------------リュウキュウキッカサンゴ
----------------タイヨウリュウキュウキッカサンゴ
----------------ヒラリュウキュウキッカサンゴ
--------------Paragoniastrea属
----------------ウネカメノコキクメイシ
----------------ミダレカメノコキクメイシ
--------------Dipsastraea属
----------------キクメイシ
------------ダイオウサンゴ科
--------------ダイオウサンゴ属
----------------ダイオウサンゴ
------------キサンゴ科
--------------スリバチサンゴ属
----------------スリバチサンゴ
----------------ヨコミゾスリバチサンゴ
--------------スツボサンゴ属
----------------スツボサンゴ
--------------イボヤギ属
----------------イボヤギ
----------------ナンヨウキサンゴ
----------イソギンチャク目
------------ウメボシイソギンチャク科
--------------タマイタダキイソギンチャク
------------ハナブサイソギンチャク科
--------------ハナブサイソギンチャク
------------ハタゴイソギンチャク科
--------------ハタゴイソギンチャク
--------------シライトイソギンチャク
--------------センジュイソギンチャク
----------ハナギンチャク目
------------ハナギンチャク科
--------------ネッタイハナギンチャク
----------スナギンチャク目
------------スナギンチャク科
--------------Zoanthus
------------Sphenopidae科
--------------Palythoa
----------------Palythoa heliodiscus
--------八放サンゴ亜綱
----------アオサンゴ目
------------アオサンゴ科
--------------アオサンゴ属
----------------アオサンゴ
----------クダサンゴ目
----------ウミトサカ目
------------ウミトサカ亜目
--------------チヂミトサカ科
------------石軸亜目
--------------イソバナ科
----------------オオイソバナ
--------------ヒラヤギ科
----------------ミナミヒラヤギ
------ヒドロ虫綱
--------Anthoathecata目
----------アナサンゴモドキ科
------------アナサンゴモドキ属
--------------ヤツデアナサンゴモドキ
--------------カンボクアナサンゴモドキ
--------------ホソエダアナサンゴモドキ
--------ヒドロサンゴ目
--------ハナクラゲ目
----------ギンカクラゲ科
------------ギンカクラゲ
------------カツオノカンムリ
--------クダクラゲ目
----------カツオノエボシ科
------------カツオノエボシ
------鉢虫綱
--------ミズクラゲ目
----------ミズクラゲ科
------------ミズクラゲ属
--------------ミズクラゲ
----扁形動物門
------渦虫綱
--------多岐腸目
----------ニセツノヒラムシ科
------------Thysanozoon nigropapillosum
----------Family Ilyplanidae
------------ヒョウモンヒラムシ
----軟体動物門
------曲体亜門
--------マキガイ綱
----------カサガイ類
------------ツタノハガイ上科
--------------ウノアシ
------------ヨメガカサガイ上科
--------------ヨメガカサガイ科
----------------オオベッコウガサ
----------古腹足類
------------ミミガイ上科
--------------ミミガイ科
------------ニシキウズガイ上科
--------------ニシキウズガイ科
----------------オキナワイシダタミ
------------サザエ上科
--------------サザエ科
----------------コシダカサザエ
----------------カンギク
----------Cycloneritimorpha類
------------アマオブネガイ上科
--------------アマオブネガイ科
----------------キバアマガイ
----------------マルアマオブネ
----------------アマオブネガイ
----------------フトスジアマガイ
----------------イシダタミアマオブネ
----------------コシダカアマガイ
----------------オオマルアマオブネ
----------------ニシキアマオブネ
----------------オオアマガイ
----------原始紐舌類
------------ヤマタニシ上科
--------------ヤマタニシ科
----------------アオミオカタニシ
----------------オキナワヤマタニシ
------------リンゴガイ上科
--------------リンゴガイ科
----------------スクミリンゴガイ
----------Sorbeconcha類
------------カニモリガイ上科
--------------ゴマフニナ科
----------------ゴマフニナ
----------------ヨコスジタマキビモドキ
--------------ウミニナ科
----------------リュウキュウウミニナ
--------------キバウミニナ科
----------------イトカケヘナタリ
----------------ヘナタリ
----------------センニンガイ
----------------キバウミニナ
--------------オニノツノガイ科
----------------イボアヤカワニナ
----------------カヤノミカニモリ
----------------オオシマカニモリ
----------タマキビ型類
------------タカラガイ上科
--------------タカラガイ科
----------------ハナビラダカラ
----------------ハナマルユキ
----------------ハチジョウダカラ
----------------ヤクシマダカラ
----------------ホシダカラ
----------------ヤナギシボリダカラ
----------------キイロダカラ
----------------ナツメモドキ
------------タマキビ上科
--------------タマキビ科
----------------イボタマキビ
----------------コンペイトウガイ
----------------タイワンタマキビ
----------------ホソスジウズラタマキビ
----------------ウズラタマキビ
----------------コウダカタマキビ
----------------コビトウラウズ
------------ソデボラ上科
--------------ソデボラ科(スイショウガイ科)
----------------イボソデ
----------------マガキガイ
----------------クモガイ
----------------オハグロガイ
----------------スイショウガイ
------------ヤツシロガイ上科
--------------フジツガイ科
----------------ホラガイ
----------------サツマボラ
------------ムカデガイ上科
--------------ムカデガイ科
----------------フタモチヘビガイ
------------Naticoidea上科
--------------タマガイ科
----------------ホウシュノタマ
----------------アラゴマフダマ
------------シロネズミガイ上科
--------------スズメガイ科
----------------スズメガイ
----------新腹足類
------------エゾバイ上科
--------------エゾバイ科
----------------シマベッコウバイ
----------------ノシガイ
--------------ムシロガイ科
----------------リュウキュウムシロ
----------------シイノミヨフバイ
--------------イトマキボラ科
----------------イトマキボラ
------------アッキガイ上科
--------------アッキガイ科
----------------シロレイシダマシ
----------------ツノレイシガイ
----------------ウネシロレイシダマシ
----------------クチキレレイシダマシ
----------------ツノテツレイシ
----------------レイシダマシ
----------------レイシダマシモドキ
----------------ウネレイシダマシ
----------------テツレイシ
----------------ヒロウネレイシダマシ
----------------ウニレイシダマシ
----------------ホソスジテツボラ
----------------ガンゼキボラ
--------------フデガイ科
----------------ナガシマヤタテ
----------------イモフデガイ
--------------オニコブシガイ科
----------------コオニコブシ
------------イモガイ上科
--------------イモガイ科
----------------マダライモ
----------------アンボンクロザメ
----------------クロミナシ
----------異鰓類
------------チドリミドリガイ上科
--------------チドリミドリガイ科
----------------シロアミミドリガイ
----------------チドリミドリガイ
------------クルマガイ上科
--------------クルマガイ科
----------------コシダカナワメグルマ
------------オオシイノミガイ上科
--------------ミスガイ科
----------------ミスガイ
----------Cephalaspidea類
------------ブドウガイ上科
--------------ブドウガイ科
----------------ミガキブドウガイ
------------キセワタガイ上科
--------------ウミコチョウ科
----------------ムラサキウミコチョウ
--------------カノコキセワタガイ科
----------------コナユキツバメガイ
----------------ニシキツバメガイ
----------Aplysiomorpha類
------------アメフラシ上科
--------------アメフラシ科
----------------アマクサアメフラシ
----------Euctenidiacea類
------------ドーリス類
--------------ドーリス上科
----------------イロウミウシ科
------------------アオウミウシ
------------------アンナウミウシ
------------------イガグリウミウシ
------------------オトヒメウミウシ
------------------キイロウミウシ
------------------キベリクロスジウミウシ
------------------コールマンウミウシ
------------------サビウライロウミウシ
------------------シライトウミウシ
------------------ゾウゲイロウミウシ
------------------タイヘイヨウイロウミウシ
------------------ミゾレウミウシ
------------------マダライロウミウシ
------------------アカテンイロウミウシ
------------------ヒョウモンウミウシ
----------------ドーリス科
------------------キスジカンテンウミウシ
------------------ブッシュドノエルウミウシ
------------------コンペイトウウミウシ
----------------ミカドウミウシ科
------------------ミカドウミウシ
--------------イボウミウシ上科
----------------イボウミウシ科
------------------ユキヤマウミウシ
------------------ソライロイボウミウシ
------------------タテヒダイボウミウシ
------------------キイロイボウミウシ
------------------コイボウミウシ
--------------フジタウミウシ上科
----------------キヌハダウミウシ科
------------------キクゾノウミウシ
----------------フジタウミウシ科
------------------サガミリュウグウウミウシ
------------------イシガキリュウグウウミウシ
------------------ツノザヤウミウシ
------------------ベニゴマリュウグウウミウシ
----------Cladobranchia類
------------ショウジョウウミウシ科
--------------マドレラ・フェルギノーサ
------------Dendronotida類
--------------ホクヨウウミウシ上科
----------------ホクヨウウミウシ科
------------------シロハナガサウミウシ
----------------ユビウミウシ科
------------------ヒオドシユビウミウシ
------------オオミノウミウシ類
--------------サキシマミノウミウシ上科
----------------サキシマミノウミウシ科
------------------アデヤカミノウミウシ
--------------ヒダミノウミウシ上科
----------------オショロミノウミウシ科
------------------ジボガミノウミウシ
--------------オオミノウミウシ上科
----------------アオミノウミウシ科
------------------ムカデミノウミウシ
----------基眼類
------------カラマツガイ上科
--------------カラマツガイ科
----------------コウダカカラマツガイ
----------柄眼類
------------直輸尿管類
--------------ハワイマイマイ上科
----------------ハワイマイマイ科
----------収眼類
------------ドロアワモチ上科(イソアワモチ上科)
--------------ドロアワモチ科(イソアワモチ科)
----------------イソアワモチ
------------Veronicelloidea上科
--------------Veronicellidae科
----------------アシヒダナメクジ
----------Limacoid類
------------エスカルゴ上科(マイマイ上科)
--------------オナジマイマイ科
----------------クンチャンケマイマイ
----------------オキナワウスカワマイマイ
--------------ナンバンマイマイ科
----------------シュリマイマイ
------------Gastrodontoidea上科
--------------カサマイマイ科
----------------オオカサマイマイ
------------ベッコウマイマイ上科
--------------ベッコウマイマイ科
----------------ヒラコウラベッコウガイ
------------オオコウラナメクジ上科
--------------ナメクジ科
----------曲輸尿管類
------------キセルガイ上科
--------------キセルガイ科
----------------スジイリオキナワギセル
------------アフリカマイマイ科
--------------アフリカマイマイ
----------真正有肺類
------------オカミミガイ科
--------------カシノメガイ
--------頭足綱
----------イカ亜綱
------------コウイカ目
--------------コウイカ科
----------------コブシメ
------------タコ目
--------------マダコ科
----------------Octopus aspilosomatis
----------------ワモンダコ
----------アンモナイト亜綱
------直体亜門
--------ニマイガイ綱
----------ウグイスガイ亜綱
------------カキ目
--------------イタボガキ科
----------------オハグロガキ属
----------------サンゴガキ
--------------ベッコウガキ科
----------------シャコガキ
--------------マクガイ科
----------------ヘリトリアオリ
----------------カイシアオリ
------------イガイ目
--------------イガイ科
----------------ヒバリガイモドキ
--------------ハボウキガイ科
------------イタヤガイ目
--------------ウミギクガイ科
----------------ミズイリショウジョウガイ
--------------イタヤガイ科
----------------ウミギクガイモドキ
--------------ミノガイ科
----------------ウスユキミノ
------------フネガイ目
--------------フネガイ科
----------------リュウキュウサルボウ
--------------タマキガイ科
----------------ソメワケグリ
----------ハマグリ亜綱
------------ハマグリ目
--------------シャコガイ科
----------------シラナミ
----------------ヒメジャコ
----------------シャゴウ
--------------ウロコガイ科
------------マルスダレガイ目
--------------ニッコウガイ科
----------------ニッコウガイ
--------------バカガイ科
----------------リュウキュウバカガイ
----------------タママキ
--------------マルスダレガイ科
----------------アラスジケマン
----------------ホソスジイナミ
----------------マルオミナエシ
----------------サラサガイ
----------------ヒメアサリ
----------------ヤエヤマスダレ
--------------キクザルガイ科
----------------ヒレインコ
--------------シオサザナミ科
----------------リュウキュウマスオ
----------------マスオガイ
----------------ハザクラ
--------------チドリマスオ科
----------------イソハマグリ
--------------ザルガイ科
----------------カワラガイ
----------------リュウキュウザル
--------------チリハギガイ科
----------------ユンタクシジミ
------------オオノガイ目
--------------ニオガイ科
------双神経亜門
--------ヒザラガイ綱
----------リュウキュウヒザラガイ
------掘足綱
----環形動物門
------多毛綱
--------ケヤリムシ目
----------ケヤリムシ科
----------カンザシゴカイ科
------------イバラカンザシ
------------オオシライトゴカイ
--------ウミケムシ目
----------ウミケムシ科
------------ハナオレウミケムシ
--------サシバゴカイ目
----------ウロコムシ科
--------フサゴカイ目
----------ウミイサゴムシ科
----ユムシ動物門
------キタユムシ目
--------キタユムシ科
--------ボネリムシ科
----------ボネリムシ
----星口動物門
------スジホシムシ目
--------スジホシムシ科
----節足動物門
------甲殻亜門
--------顎脚綱
----------鞘甲亜綱
------------有柄目
--------------エボシガイ亜目
----------------エボシガイ科
------------------エボシガイ
------------無柄目
--------------フジツボ亜目
----------------シロスジフジツボ
----------------ウチムラサキイワフジツボ
----------------ミナミクロフジツボ
----------------タイワンクロフジツボ
----------------タテジマフジツボ
----------------オニフジツボ
----------------カメフジツボ属
----------鰓尾亜綱
--------軟甲綱
----------真軟甲亜綱
------------フクロエビ上目
--------------等脚目
----------------ウオノエ科
------------------タイノエ
----------------オカダンゴムシ科
------------------オカダンゴムシ
----------------フナムシ科
--------------端脚目
------------ホンエビ上目
--------------十脚目
----------------抱卵亜目
------------------短尾下目
--------------------Trapezioidea上科
--------------------カイカムリ上科
----------------------カイカムリ科
--------------------イワガニ上科
----------------------イワガニ科
------------------------ミナミイワガニ
----------------------モクズガニ科
------------------------ヒライソガニ
--------------------Dairoidea上科
----------------------Dairidae科
------------------------カノコオウギガニ
--------------------カラッパ上科
----------------------カラッパ科
------------------------ソデカラッパ
----------------------キンセンガニ科
------------------------キンセンガニ
------------------------コモンガニ
--------------------Pilumnoidea上科
----------------------Pilumnidae科
------------------------ケブカガニ
--------------------ワタリガニ上科
----------------------サンゴガニ科
----------------------トゲアシガニ科
----------------------オカガニ科
------------------------オカガニ
------------------------オオオカガニ
------------------------ヤエヤマヒメオカガニ
----------------------ワタリガニ科
------------------------ミナミベニツケモドキ
------------------------ミナミベニツケガニ
------------------------タイワンガザミ
--------------------Eriphioidea上科
----------------------Oziidae科
------------------------キバオウギガニ
----------------------Eriphiidae科
------------------------ヒメイワオウギガニ
------------------------イワオウギガニ
--------------------スナガニ上科
----------------------スナガニ科
------------------------ツノメガニ
------------------------ベニシオマネキ
------------------------オキナワハクセンシオマネキ
------------------------ルリマダラシオマネキ
------------------------ヒメシオマネキ
----------------------Dotillidae科
------------------------リュウキュウコメツキガニ
----------------------ミナミコメツキガニ科
------------------------ミナミコメツキガニ
--------------------Carpilioidea上科
----------------------Carpiliidae科
------------------------アカモンガニ
--------------------Potamoidea上科
----------------------サワガニ科
------------------------サカモトサワガニ
--------------------クモガニ上科
----------------------ヤワラガニ科
------------------------ヒメソバガラガニ
------------------異尾下目
--------------------コシオリエビ上科
----------------------カニダマシ科
------------------------ムチヤギカクレカニダマシ
----------------------ワラエビ科
------------------------ワラエビ属
--------------------------ホシゾラワラエビ
--------------------ホンヤドカリ上科
----------------------オカヤドカリ科
------------------------ヤシガニ
------------------------オカヤドカリ
------------------------ナキオカヤドカリ
------------------------ムラサキオカヤドカリ
----------------------ホンヤドカリ科
------------------------カンザシヤドカリ
----------------------ヤドカリ科
------------------------スベスベサンゴヤドカリ
------------------------イモガイヨコバサミ
------------------------サンゴヨコバサミ
------------------------シマヨコバサミ
------------------------ツマキヨコバサミ
------------------------マダラヨコバサミ
------------------------タテジマヨコバサミ
--------------------スナホリガニ上科
----------------------スナホリガニ科
------------------------スナホリガニ
------------------オトヒメエビ下目
--------------------オトヒメエビ科
----------------------オトヒメエビ
----------------------ブルーボクサーシュリンプ
------------------コエビ下目
--------------------テナガエビ上科
----------------------テナガエビ科
------------------------イソギンチャクエビ
------------------------アカヒゲカクレエビ
------------------------ヒトデヤドリエビ
------------------------ロングクローシュリンプ
------------------------イソスジエビ
--------------------テッポウエビ上科
----------------------モエビ科
------------------------アカシマシラヒゲエビ
----------------------テッポウエビ科
------------------アナエビ下目
--------------------スナモグリ科
----------棘蝦亜綱
------------口脚目
--------------Unipeltata亜目
----------------フトユビシャコ上科
------------------ハナシャコ科
--------------------モンハナシャコ
------------------フトユビシャコ科
--------------------フトユビシャコ
--------------------フトユビシャコモドキ
------多足亜門
--------ムカデ綱
----------オオムカデ目
------------オオムカデ科
--------------トビズムカデ
--------ヤスデ綱
----------フトマルヤスデ目
------------ミナミヤスデ科
--------------ミナミヤスデ
----------オビヤスデ目
------------ヤケヤスデ科
--------------ヤンバルトサカヤスデ
------鋏角亜門
--------クモ綱
----------クモ目
------------アシナガグモ科
--------------オオジョロウグモ
--------------ジョロウグモ
--------------オオシロカネグモ
--------------チュウガタシロカネグモ
------------コガネグモ科
--------------コガタコガネグモ
--------------ナガマルコガネグモ
--------------ホシスジオニグモ
--------------チブサトゲグモ
--------------トガリオニグモ
--------------トゲゴミグモ
--------------ミナミノシマゴミグモ
--------------コゲチャオニグモ
--------------ミツカドゴミグモ
------------カニグモ科
--------------ワカバグモ
--------------オキナワアズチグモ
--------------トガリシロスジグモ
--------------イボカニグモ
--------------ホシズナワカバグモ
------------ヒメグモ科
--------------ミナミノアカイソウロウグモ
--------------シロカネイソウロウグモ
--------------アシナガヒメグモ
------------ハエトリグモ科
--------------タテスジハエトリ
--------------カラオビハエトリ
--------------ヤガタアリグモ
--------------アダンソンハエトリ
------------アシダカグモ科
--------------アシダカグモ
--------------オキナワカワリアシダカグモ
------------ウズグモ科
------------コモリグモ科
--------------スナハラコモリグモ
--------------ハラクロコモリグモ
------------ササグモ科
--------------シマササグモ
--------------ササグモ
----------ダニ目
------------ミズダニ団
------------タカラダニ科
----------ザトウムシ目
------------カワザトウムシ科
--------------ギンボシザトウムシ
------六脚亜門
--------昆虫綱
----------チョウ目
------------シジミチョウ科
--------------ヤマトシジミ
--------------ウラナミシジミ
--------------Zizeeria maha okinawana
--------------クロマダラソテツシジミ
------------タテハチョウ科
--------------アオタテハモドキ
--------------アカタテハ
--------------アサギマダラ
--------------イシガケチョウ
--------------オオゴマダラ
--------------カバマダラ
--------------スジグロカバマダラ
--------------タテハモドキ
--------------ツマグロヒョウモン
--------------ヒメアカタテハ
--------------リュウキュウアサギマダラ
--------------リュウキュウヒメジャノメ
--------------リュウキュウミスジ
--------------ルリタテハ
--------------マサキウラナミジャノメ
--------------サカハチョウ
--------------コミスジ
--------------ツマムラサキマダラ
------------シロチョウ科
--------------モンシロチョウ
--------------キチョウ属
--------------ツマベニチョウ
------------ミノガ科
--------------オオミノガ
--------------ニトベミノガ
------------ヒトリガ科
--------------モンシロモドキ
--------------オキナワモンシロモドキ
--------------アマミキホソバ
------------スズメガ科
--------------イチモンジホウジャク
--------------コスズメガ
--------------セスジスズメ
--------------エビガラスズメ
--------------ホシホウジャク
------------アゲハチョウ科
--------------アオスジアゲハ
--------------ジャコウアゲハ
--------------モンキアゲハ
--------------シロオビアゲハ
------------シャクガ科
--------------ヒメマダラエダシャク
--------------フタツメオオシロヒメシャク
--------------ギンネムエダシャク
--------------オビベニホシシャク
--------------キオビエダシャク
------------ドクガ科
--------------コシロモンドクガ
--------------タイワンキドクガ
--------------スキバドクガ
--------------カシワマイマイ
--------------マイマイガ
--------------オキナワドクガ
--------------ヒメシロモンドクガ
--------------マエグロマイマイ
------------ケンモンガ科
--------------キバラケンモン
------------ハマキモドキガ科
--------------Choreutis amethystodes
--------------ニシキヒロハマキモドキ
------------ヒロズコガ科
--------------クロエリメンコガ
------------ヤガ科
--------------キイロヒトリモドキ
--------------サンカククチバ
--------------ヒメゴマフコヤガ
--------------シロスジヒトリモドキ
--------------ハスモンヨトウ
--------------ホウオウボククチバ
------------セセリチョウ科
--------------イチモンジセセリ
--------------オキナワビロードセセリ
--------------ユウレイセセリ
------------カザリバガ科
------------ハマキガ科
------------カレハガ科
--------------クヌギカレハ(琉球亜種)
------------ジャノメチョウ科
--------------リュウキュウヒメジャノメ
------------ツトガ科
--------------ハグルマノメイガ
--------------マエアカスカシノメイガ
--------------ムツテンノメイガ
--------------モンキシロノメイガ
--------------オオモンヒメシロノメイガ
--------------ワタヘリクロノメイガ
--------------コウセンボシロノメイガ
------------マダラガ科
--------------クロツバメの一種
--------------オキナワルリチラシ沖縄島亜種
------------カギバガ科
------------イラガ科
--------------ヒロヘリアオイラガ
------------ツバメガ科
--------------ヒメクロホシフタオ
----------カマキリ目
------------カマキリ科
--------------ハラビロカマキリ
----------バッタ目
------------オンブバッタ科
--------------オンブバッタ
------------バッタ科
--------------ショウリョウバッタ
--------------オキナワモリバッタ
------------イナゴ科
--------------ハネナガイナゴ
--------------ツチイナゴ
--------------タイワンツチイナゴ
------------マツムシ科
--------------マダラコオロギ
------------キリギリス科
--------------セスジツユムシ
----------トンボ目
------------トンボ科
--------------リスアカネ
--------------オオシオカラトンボ
--------------タイリクショウジョウトンボ
--------------ベニトンボ
--------------シオカラトンボ
--------------ウスバキトンボ
--------------ハラボソトンボ
--------------オキナワチョウトンボ
--------------オオキイロトンボ
--------------コシブトトンボ
--------------ホソミシオカラトンボ
------------カワトンボ科
--------------リュウキュウハグロトンボ
------------イトトンボ科
--------------コフキヒメイトトンボ
--------------リュウキュウベニイトトンボ
--------------ムスジイトトンボ
--------------セスジイトトンボ
------------ヤンマ科
--------------カトリヤンマ
--------------リュウキュウカトリヤンマ
------------モノサシトンボ科
--------------リュウキュウルリモントンボ
------------サナエトンボ科
--------------タイワンウチワヤンマ
----------カメムシ目
------------セミ科
--------------オオシマゼミ
--------------クマゼミ
--------------リュウキュウアブラゼミ
--------------アブラゼミ
--------------イワサキクサゼミ
------------ヘリカメムシ科
--------------フタスジハリカメムシ
--------------ホシハラビロヘリカメムシ
--------------ホオズキカメムシ
--------------ホソハリカメムシ
--------------アシビロヘリカメムシ
------------ホシカメムシ科
--------------アカホシカメムシ
--------------シロジュウジホシカメムシ
------------サシガメ科
--------------ヨコヅナサシガメ
--------------キベリヒゲナガサシガメ
--------------オキナワハラアカサシガメ
--------------ビロウドサシガメ
------------マルカメムシ科
--------------マルカメムシ
------------キンカメムシ科
--------------ナナホシキンカメムシ
------------カメムシ科
--------------ブチヒゲカメムシ
--------------ハリクチブトカメムシ
--------------タイワントゲカメムシ
--------------ツヤアオカメムシ
--------------アオクチブトカメムシ
--------------ヒメナガメ
--------------マルシラホシカメムシ
--------------チャバネアオカメムシ
--------------エゾアオカメムシ
------------ヨコバイ科
--------------オサヨコバイ
--------------ツマグロオオヨコバイ
------------ホソヘリカメムシ科
--------------ホソヘリカメムシ
--------------キスジホソヘリカメムシ
--------------クモヘリカメムシ
------------オオホシカメムシ科
--------------オオホシカメムシ
------------アブラムシ科
--------------タイワンヒゲナガアブラムシ
------------ツノゼミ科
--------------トビイロツノゼミ
------------アオバハゴロモ科
--------------アオバハゴロモ
------------グンバイムシ科
--------------アワダチソウグンバイ
------------グンバイウンカ科
--------------ミドリグンバイウンカ
------------マルウンカ科
--------------ダルマウンカ
------------ウンカ科
------------ナガカメムシ科
--------------ヒメマダラナガカメムシ
--------------ヒメナガカメムシ
--------------ヒメアカナガカメムシ
--------------チャイロナガカメムシ
------------ワタフキカイガラムシ科
--------------キイロワタフキカイガラムシ
------------ハゴロモ科
--------------フタホシハゴロモ
--------------アミガサハゴロモ
------------ハゴロモモドキ科
--------------オキナワハゴロモモドキ
------------カスミカメムシ科
------------ヒラタカメムシ科
--------------ニセチャイロナガヒラタカメムシ
------------オオメナガカメムシ科
--------------オオメナガカメムシ
------------コナカイガラムシ科
----------ハチ目
------------ミツバチ科
--------------ミツバチ属
----------------セイヨウミツバチ
--------------クロマルハナバチ
------------アリ科
--------------アシナガキアリ
------------ドロバチ科
--------------クロスジスズバチ
------------スズメバチ科
--------------オキナワセグロアシナガバチ
----------コウチュウ目
------------テントウムシ科
--------------ダンダラテントウ
--------------ニジュウヤホシテントウ
--------------ナナホシテントウ
--------------ナミテントウ
--------------ハイイロテントウ
--------------キイロテントウ
--------------ジュウニマダラテントウ
--------------ヒメカノコテントウ
------------ミズスマシ科
--------------オキナワオオミズスマシ
------------カミキリムシ科
--------------ベニカミキリ
--------------オオシマゴマダラカミキリ
--------------イツホシシロカミキリ
--------------ヨツスジトラカミキリ
--------------トゲヒゲトビイロカミキリ
--------------オキナワフトカミキリ
------------ハンミョウ科
--------------オキナワハンミョウ
--------------コハンミョウ
------------タマムシ科
--------------タマムシ
--------------アオムネスジタマムシ
--------------ウバタマムシ
------------クワガタムシ科
------------コガネムシ科
--------------リュウキュウツヤハナムグリ
--------------オキナワカブト
--------------オキナワマメコガネ
--------------セマダラコガネ
------------ハムシ科
--------------ウリハムシ
--------------フタイロウリハムシ
--------------タイワンハムシ
--------------オキナワイチモンジハムシ
--------------キベリヒラタノミハムシ
--------------ヨツモンカメノコハムシ
--------------クロウリハムシ
--------------タテスジヒメジンガサハムシ
--------------イタドリハムシ
--------------ツツサルハムシ
------------ゾウムシ科
--------------シロコブゾウムシ
--------------オキナワクワゾウムシ
--------------ヒラヤマメナガゾウムシ
------------キクイムシ科
------------ジョウカイボン科
--------------セボシジョウカイ
--------------クビボソジョウカイ
------------ホタル科
--------------ヤエヤマヒメボタル
--------------シブイロヒゲボタル
--------------オキナワマドボタル
------------ハムシダマシ科
--------------ウルマクロハムシダマシ
------------ベニボタル科
--------------カクムネベニボタル
------------カミキリモドキ科
--------------キムネカミキリモドキ
------------ゴミムシダマシ科
--------------クロホシテントウゴミムシダマシ
------------シバンムシ科
--------------タバコシバンムシ
----------ハエ目
------------ムシヒキアブ科
--------------アオメアブ
------------ガガンボ科
------------ミバエ科
--------------センダングサミバエ
--------------オオセンダングサミバエ
------------カ科
--------------Culex pipiens
------------ハナアブ科
--------------キベリヒラタアブ
--------------オキナワアシブトハナアブ
------------チョウバエ科
------------ユスリカ科
------------アシナガバエ科
------------ケバエ科
--------------メスアカケバエ
------------ノミバエ科
------------ハナバエ科
--------------クロオビハナバエ
------------タマバエ科
----------シリアゲムシ目
------------シリアゲムシ科
--------------ヤマトシリアゲ
----------ゴキブリ目
------------マダラゴキブリ科
--------------サツマゴキブリ
------------ゴキブリ科
----------ナナフシ目
------------ナナフシ亜科
----------アミメカゲロウ目
------------クサカゲロウ科
------------ツノトンボ科
--------------オキナワツノトンボ
----------咀顎目
------------チャタテムシ類の一種
----------イシノミ目
------------イシノミ科
--------------ヒトツモンイシノミ
----------ハサミムシ目
----------シロアリ目
------------イエシロアリ
----苔虫動物門
------裸口綱
--------広口亜綱
----------フサコケムシ目
------------ヒラコケムシ亜目
--------------アミコケムシ科
----------------ジュズツナギコケムシ
----珍無腸動物門
------無腸動物亜門
--------無腸目
----------コンボルータ科
------------Waminoa属
----棘皮動物門
------ウニ綱
--------Cidaroidea亜綱
----------オウサマウニ目
------------オウサマウニ科
--------------フシザオウニ
--------Euechinoidea亜綱
----------Acroechinoidea下綱
------------ガンガゼ目
--------------トックリガンガゼモドキ
----------Carinacea下綱
------------ホンウニ上目
--------------拱歯目
----------------ホンウニ下目
------------------Odontophora上科
--------------------ナガウニ科
----------------------パイプウニ
----------------------ツマジロナガウニ
----------------------ホンナガウニ
--------------------ラッパウニ科
----------------------ラッパウニ
----------------------シラヒゲウニ
----------------Temnopleuridea下目
------------------サンショウウニ科
--------------------キリコウニ
----------フクロウニ目
------------フクロウニ科
--------------リュウキュウフクロウニ
----------Irregularia下綱
------------Neognathostomata上目
--------------タコノマクラ目
------ナマコ綱
--------無足目
----------クルマナマコ科
------------ムラサキクルマナマコ
----------イカリナマコ科
------------オオイカリナマコ
--------楯手目
----------クロナマコ科
------------リュウキュウフジナマコ
------------クロエリナマコ
------------イソナマコ
------------クリイロナマコ
------------ジャノメナマコ
------------ニセクロナマコ
------------クロナマコ
----------シカクナマコ科
------------シカクナマコ
------------バイカナマコ
------------アデヤカバイカナマコ
------ヒトデ綱
--------オニヒトデ科
----------オニヒトデ
--------オレアステル科
----------カワテブクロ
----------コブヒトデ
----------マンジュウヒトデ
--------フトトゲヒトデ科
----------アケボノヒトデ
--------ホウキボシ科
----------アオヒトデ
----------アカモンヒトデ
----------アライボヒトデ
----------イボヒトデ
----------ゴマフヒトデ
----------ジュズベリヒトデ
----------トガリアライボヒトデ
--------ゴカクヒトデ科
----------ヒメチシオヒトデ
--------ルソンヒトデ科
----------ルソンヒトデ
------クモヒトデ綱
--------テヅルモヅル目
----------テヅルモヅル亜目
--------クモヒトデ目
----------フサクモヒトデ科
------------オハグロクモヒトデ
------------ウデフリクモヒトデ
------ウミユリ綱
----脊索動物門
------脊椎動物亜門
--------無顎動物下門
--------有顎動物下門
----------硬骨魚綱
------------条鰭亜綱
--------------アンコウ目
----------------カエルアンコウ科
------------------ハナオコゼ
------------------ヒメヒラタカエルアンコウ
------------------オオモンカエルアンコウ
--------------ウナギ目
----------------ウツボ科
------------------クモウツボ
------------------ゼブラウツボ
------------------ニセゴイシウツボ
------------------ハナビラウツボ
------------------ハナヒゲウツボ
------------------トラウツボ
------------------アミキカイウツボ属
----------------ウミヘビ科
------------------ホタテウミヘビ
------------------クリミミズアナゴ
--------------カサゴ目
----------------カサゴ亜目
------------------オニオコゼ科
--------------------オニダルマオコゼ亜科
----------------------オニダルマオコゼ属
------------------------オニダルマオコゼ
--------------------オニオコゼ亜科
----------------------ヒメオニオコゼ
------------------フサカサゴ科
--------------------ハナミノカサゴ
------------------ダンゴオコゼ科
--------------------ダンゴオコゼ
----------------ハオコゼ科
------------------ツマジロオコゼ
--------------カレイ目
----------------ササウシノシタ科
------------------ミナミウシノシタ
--------------キンメダイ目
----------------イットウダイ科
------------------ヨゴレマツカサ
------------------トガリエビス
------------------ツマグロマツカサ
------------------ニジエビス
--------------スズキ目
----------------アジ亜目
------------------アジ科
--------------------コバンアジ
--------------------ナンヨウカイワリ
--------------------ホシカイワリ
--------------------ロウニンアジ
----------------ギンポ亜目
------------------イソギンポ科
--------------------イシガキカエルウオ
--------------------カエルウオ
--------------------タマカエルウオ
--------------------クモギンポ
------------------ヘビギンポ科
----------------コバンザメ亜目
----------------サバ亜目
------------------サバ科
--------------------グルクマ
--------------------クロマグロ
----------------スズキ亜目
------------------イサキ科
--------------------アジアコショウダイ
--------------------チョウチョウコショウダイ
------------------イトヨリダイ科
--------------------フタスジタマガシラ
------------------キンチャクダイ科
--------------------サザナミヤッコ
--------------------ソメワケヤッコ
--------------------スミレヤッコ
--------------------シテンヤッコ
------------------ゴンベ科
--------------------サラサゴンベ
--------------------ホシゴンベ
--------------------メガネゴンベ
--------------------クダゴンベ
------------------タナバタウオ科
--------------------タナバタウオ
------------------チョウチョウウオ科
--------------------アミメチョウチョウウオ
--------------------カガミチョウチョウウオ
--------------------タキゲンロクダイ
--------------------チョウチョウウオ
--------------------チョウハン
--------------------ハナグロチョウチョウウオ
--------------------ミナミハタタテダイ
--------------------ヤリカタギ
--------------------ユウゼン
--------------------フォルキピゲル属
----------------------フエヤッコダイ
--------------------トゲチョウチョウウオ
--------------------カスミチョウチョウウオ
--------------------ニセフウライチョウチョウウオ
------------------テンジクダイ科
--------------------スカシテンジクダイ
--------------------クロオビアトヒキテンジクダイ
--------------------マンジュウイシモチ
--------------------クロホシイシモチ
------------------ハタ科
--------------------カンモンハタ
--------------------ユカタハタ
--------------------ヤイトハタ
--------------------ハナゴンベ
--------------------アカハタ
--------------------ハナゴイ
------------------ハタンポ科
--------------------キンメモドキ
------------------ヒメジ科
--------------------アカヒメジ
--------------------オオスジヒメジ
--------------------オジサン
--------------------モンツキアカヒメジ
------------------フエダイ科
--------------------ゴマフエダイ
--------------------マダラタルミ
--------------------ヨスジフエダイ
--------------------タカサゴ属
----------------------クマザサハナムロ
------------------フエフキダイ科
--------------------ハマフエフキ
--------------------ノコギリダイ
------------------ヌノサラシ科
--------------------ヤミスズキ
------------------タイ科
--------------------マダイ
------------------シマイサキ科
--------------------コトヒキ
----------------ハゼ亜目
------------------オオワラスボ科
--------------------オオワラスボ亜科
----------------------ハタタテハゼ
------------------ハゼ科
--------------------オドリハゼ
--------------------ガラスハゼ
--------------------ヒメダテハゼ
--------------------イソハゼ属
--------------------オニハゼ
--------------------トカゲハゼ
--------------------ヤシャハゼ
--------------------ミナミトビハゼ
--------------------クロホシヤハズハゼ
--------------------クモハゼ
--------------------クツワハゼ
--------------------クロヒメハゼ
--------------------ヒメハゼ
--------------------ナメラハゼ
--------------------ヒメカザリハゼ
----------------ベラ亜目
------------------スズメダイ科
--------------------クマノミ亜科
----------------------カクレクマノミ
----------------------クマノミ
----------------------スパインチークアネモネフィッシュ
----------------------セジロクマノミ
----------------------トウアカクマノミ
----------------------ハナビラクマノミ
----------------------ハマクマノミ
--------------------スズメダイ亜科
----------------------スズメダイ属
------------------------アマミスズメダイ
------------------------デバスズメダイ
----------------------ミスジリュウキュウスズメダイ属
------------------------フタスジリュウキュウスズメダイ
------------------------ミスジリュウキュウスズメダイ
------------------------ミツボシクロスズメダイ
--------------------ソラスズメダイ亜科
----------------------アサドスズメダイ
----------------------クロソラスズメダイ
----------------------セナキルリスズメダイ
----------------------ダンダラスズメダイ
----------------------ナガサキスズメダイ
----------------------ナミスズメダイ
----------------------ハナナガスズメダイ
----------------------ヤマブキスズメダイ
----------------------ルリホシスズメダイ
----------------------モンツキスズメダイ
----------------------オヤビッチャ
----------------------クラカオスズメダイ
----------------------ネズスズメダイ
----------------------シマスズメダイ
----------------------スジブチスズメダイ
----------------------イチモンスズメダイ
----------------------ルリスズメダイ
------------------ベラ科
--------------------イトヒキベラ属
----------------------トモシビイトヒキベラ
----------------------クロヘリイトヒキベラ
--------------------ソメワケベラ属
----------------------ホンソメワケベラ
--------------------モチノウオ属
----------------------ヤシャベラ
--------------------ホホスジモチノウオ属
----------------------ホホスジモチノウオ
--------------------ニシキベラ属
----------------------ヤマブキベラ
--------------------キュウセン属
----------------------ミツボシキュウセン
----------------------ムナテンベラダマシ
------------------ブダイ科
--------------------オオモンハゲブダイ
--------------------スジブダイ
--------------------オビブダイ
--------------------イチモンジブダイ
------------------シクリッド科
----------------ボラ亜目
------------------カマス科
--------------------オニカマス
--------------------タイワンカマス
--------------------ピックハンドルバラクーダ
--------------------ホソカマス
----------------ニザダイ亜目
------------------マンジュウダイ科
--------------------ツバメウオ
--------------------ナンヨウツバメウオ
--------------------アカククリ
------------------ニザダイ科
--------------------クロハギ
--------------------ヒレナガハギ
--------------------ニセカンランハギ
--------------------ナンヨウハギ
--------------------シマハギ
------------------アイゴ科
--------------------ヒフキアイゴ
--------------------アイゴ
--------------------アミアイゴ
------------------ツノダシ科
--------------------ツノダシ
----------------ネズッポ亜目
------------------ネズッポ科
--------------------イズヌメリ
--------------------ニシキテグリ
--------------------ヤマドリ
----------------ワニギス亜目
------------------トラギス科
--------------------オグロトラギス
----------------カジキ亜目
------------------メカジキ科
--------------トゲウオ目
----------------トゲウオ亜目
------------------ヘコアユ科
--------------------ヘコアユ
----------------ヨウジウオ亜目
------------------ヤガラ科
--------------------アオヤガラ
------------------ヨウジウオ科
--------------------タツノオトシゴ亜科
--------------------ヨウジウオ亜科
----------------------イシヨウジ
------------------ヘラヤガラ科
--------------------ヘラヤガラ
------------------カミソリウオ科
--------------------ニシキフウライウオ
------------------ウミテング科
--------------------ウミテング
--------------ナマズ目
----------------ゴンズイ科
------------------ゴンズイ
--------------フグ目
----------------フグ科
------------------コクテンフグ
------------------サザナミフグ
------------------シマキンチャクフグ
------------------スジモヨウフグ
------------------マンボウ
------------------キタマクラ
------------------オキナワフグ
------------------クサフグ
----------------ハリセンボン科
------------------ハリセンボン
------------------ヒトヅラハリセンボン
------------------ネズミフグ
----------------モンガラカワハギ科
------------------ゴマモンガラ
------------------クマドリ
------------------モンガラカワハギ
------------------ムラサメモンガラ
----------------カワハギ科
------------------テングカワハギ
------------------ノコギリハギ
------------------アミメハギ
----------------ハコフグ科
------------------ウミスズメ
--------------ヒメ目
----------------ミズウオ亜目
------------------エソ科
--------------------アカエソ属
--------------------マダラエソ
--------------カダヤシ目
----------------カダヤシ科
------------------グッピー
--------------ダツ目
----------------ダツ科
----------哺乳綱
------------双前歯目
--------------コアラ科
----------------コアラ
--------------カンガルー科
----------------パルマワラビー
------------ネコ目
--------------クマ科
----------------ニッポンツキノワグマ
--------------ネコ科
----------------ライオン
----------------イエネコ
--------------マングース科
----------------フイリマングース
--------------イヌ科
----------------イエイヌ
------------ゾウ目
--------------ゾウ科
----------------アフリカゾウ
------------ウマ目
--------------サイ科
----------------クロサイ
--------------ウマ科
----------------ロバ亜属
------------ネズミ目
--------------リス科
------------コウモリ目
--------------オオコウモリ科
----------------オリイオオコウモリ
------------鯨偶蹄目
--------------ウシ科
----------------スイギュウ
----------------ウシ
----------------ヤギ属
--------------ナガスクジラ科
----------------ザトウクジラ
--------------シカ科
--------------ラクダ科
----------------リャマ
--------------イノシシ科
--------------ペッカリー科
----------------クビワペッカリー
------------トガリネズミ目
--------------トガリネズミ科
----------------ジャコウネズミ
----------軟骨魚綱
------------板鰓亜綱
--------------トビエイ目
----------------トビエイ科
------------------オニイトマキエイ
------------------マダラトビエイ
--------------ガンギエイ目
----------------シノノメサカタザメ科
------------------シノノメサカタザメ
--------------ノコギリエイ目
----------------ノコギリエイ科
--------------メジロザメ目
----------------メジロザメ科
------------------ネムリブカ
------------------イタチザメ
------------------メジロザメ属
--------------------オグロメジロザメ
--------------------メジロザメ
------------------レモンザメ
----------------ヒレトガリザメ科
------------------カマヒレザメ属
----------------シュモクザメ科
--------------カグラザメ目
----------------カグラザメ科
------------------エドアブラザメ
--------------ネズミザメ目
----------------メガマウス科
------------------メガマウス
----------------ネズミザメ科
------------------ホホジロザメ
------------------Carcharocles escheri
------------------アオザメ属
------------------Cosmopolitodus hastalis
----------------オオワニザメ科
------------------シロワニ
----------------Otodontidae科
------------------Parotodas
------------------ムカシオオホホジロザメ
----------------ミツクリザメ科
------------------ミツクリザメ
--------------ネコザメ目
----------------ネコザメ科
--------------テンジクザメ目
----------------トラフザメ科
------------------トラフザメ
----------------ジンベイザメ科
------------------ジンベイザメ
----------爬虫綱
------------カメ目
--------------ウミガメ科
----------------アオウミガメ
----------------タイマイ
----------------アカウミガメ
--------------リクガメ科
----------------アルダブラゾウガメ
----------------ヒョウモンガメ
--------------ヌマガメ科
----------------ミシシッピアカミミガメ
--------------イシガメ科
----------------リュウキュウヤマガメ
----------------セマルハコガメ
------------有鱗目
--------------トカゲ亜目
----------------トカゲ科
------------------サキシマスベトカゲ
------------------イシガキトカゲ
----------------ヤモリ科
------------------ニホンヤモリ
------------------ホオグロヤモリ
----------------アガマ科
------------------オキナワキノボリトカゲ
----------------カナヘビ科
------------------アオカナヘビ
--------------ヘビ亜目
----------------ウミヘビ科
------------------エラブウミヘビ
------------------イイジマウミヘビ
----------------ナミヘビ科
------------------ガラスヒバァ
------------------リュウキュウアオヘビ
----------鳥綱
------------ダチョウ目
--------------ダチョウ科
----------------ダチョウ
--------------エミュー
------------ペリカン目
--------------モモイロペリカン
------------スズメ目
--------------カラス科
--------------シジュウカラ科
----------------ヤマガラ
--------------スズメ科
----------------スズメ
--------------ツグミ科
----------------アカハラ
----------------イソヒヨドリ
----------------シロハラ
----------------ツグミ
----------------ホントウアカヒゲ
--------------ヒヨドリ科
----------------シロガシラ
----------------ヒヨドリ
--------------メジロ科
----------------メジロ
--------------セキレイ科
----------------タイリクハクセキレイ
----------------キセキレイ
--------------ツバメ科
----------------リュウキュウツバメ
--------------ホオジロ科
----------------カシラダカ
--------------ムクドリ科
----------------ムクドリ
--------------セッカ科
----------------セッカ
--------------エナガ科
----------------エナガ
------------ハト目
--------------キジバト
--------------カワラバト
------------ツル目
--------------クイナ科
----------------バン
----------------オオバン
----------------亜種リュウキュウヒクイナ
----------------ヤンバルクイナ
--------------ツル科
----------------ホオジロカンムリヅル
------------カモ目
--------------カモ科
----------------ハシビロガモ
----------------ノバリケン
----------------コガモ
----------------カルガモ
----------------ツクシガモ
----------------オナガガモ
------------コウノトリ目
--------------サギ科
----------------アオサギ
----------------チュウサギ
----------------ダイサギ
----------------ゴイサギ
----------------コサギ
----------------クロサギ
----------------アマサギ
--------------トキ科
----------------ベニヘラサギ
----------------クロツラヘラサギ
----------------ヘラサギ
----------------ショウジョウトキ
----------------アフリカクロトキ
--------------フラミンゴ科
----------------オオフラミンゴ
----------------ベニイロフラミンゴ
--------------コウノトリ科
----------------アフリカトキコウ
------------チドリ目
--------------シギ科
----------------イソシギ
----------------キアシシギ
----------------ダイシャクシギ
----------------タシギ
--------------セイタカシギ科
----------------セイタカシギ
----------------ソリハシセイタカシギ
--------------カモメ科
----------------ウミネコ
----------------オオセグロカモメ
----------------ズグロカモメ
----------------亜種コアジサシ
----------------亜種ベニアジサシ
----------------エリグロアジサシ
----------------オニアジサシ
--------------チドリ科
----------------ムナグロ
----------------シロチドリ
----------------ダイゼン
----------------イカルチドリ
--------------ミヤコドリ科
----------------ミヤコドリ
------------キジ目
--------------キジ科
----------------インドクジャク
----------------ニワトリ
--------------ホウカンチョウ科
------------キツツキ目
--------------オオハシ科
----------------オニオオハシ
--------------キツツキ科
----------------リュウキュウコゲラ
------------タカ目
--------------ミサゴ科
----------------ミサゴ
--------------タカ科
----------------サシバ
------------ブッポウソウ目
--------------カワセミ科
----------------カワセミ
----------------アカショウビン
------------ハヤブサ目
--------------ハヤブサ科
----------------チョウゲンボウ
----------両生綱
------------有尾目
--------------イモリ科
----------------アカハライモリ
----------------オキナワシリケンイモリ
----------------イボイモリ
------------無尾目
--------------ヌマガエル科
----------------ヌマガエル
--------------ヒメアマガエル科
----------------ヒメアマガエル
--------------アオガエル科
----------------リュウキュウカジカガエル
--------------アカガエル科
----------------リュウキュウアカガエル
----------------イシカワガエル
------尾索動物亜門
--------ホヤ綱
----------チャツボボヤ
----------マボヤ
----------ワモンツツボヤ
----------ミナミクロボヤ
----------クロスジツツボヤ
----------ムネボヤ
--付帯情報
----撮影水深
------干出した場所
------1-2m
------3-5m
------6-10m
------11-15m
------16-20m
------21-30m
------31m以深
----時間帯
------早朝
------午前
------午後
------夕方
------夜間
----大地形
------海(サンゴ礁)
------海(サンゴ礁以外)
------河川
------湖沼
------田んぼ
------水槽
------水族館
----地形
------汽水域
------干潟
------潮間帯
------潮間帯上部(髙潮位部)
------礁池
------潮間帯(タイドプール)
------礁斜面
------砂底
------泥底
------岩礁
------藻場
------離礁
------魚礁
------河口
------漁港
------外洋
------ドロップオフ
----
------小潮
------中潮
------大潮
----上げ潮、下げ潮、潮どまり
------上げ潮
------下げ潮
------潮どまり
----生き物の大きさ
------5cmまで
------5-10cm
------10-20cm
------20-30cm
------30-50cm
------50-100cm
------101cm以上
----群れの状態
------一匹(単独)
------二匹
------三匹以上(同じ大きさ)
------三匹以上(ばらばら)
----撮影位置
------海底
------海底から少し離れて
------中層
------水面近く
----生物が居た場所
------他の生物の上やそば
------岩盤の上
------岩の隙間や穴の中
------砂地の上
------砂の中
------漁礁
----近くの生物
------イソギンチャク
------ヤギやウミトサカ
------サンゴ
------海藻
------海草
------プランクトン
------ハマサンゴ
----生物の行動
------じっとしていた
------隠れていた
------泳ぎまわっていた
------採餌中だった
------求愛中だった
------闘っていた
------威嚇してきた
----繁殖行動
------卵を持っていた
------側に卵があった
------交接中だった
----雌雄
------オス
------メス
----生物の状態
------貝殻
------骨格
------体化石
------印象化石
------死骸
------抜け殻・脱皮後の皮等
------巣、棲管等
----撮影機材
------オリンパス TG-4
------オリンパス E-520
------RICOH CX3
------Canon EOS 5D mark2
------Canon EOS 7D
------Fujifilm Finepix X100
------Apple iPhone 5
------Apple iPhone 5s
------Panasonic DMC-FT20
------SuperEyes A005
------Sony Xperia Z3
----レンズ
------ZD 35mm F3.5 Macro
------ZD 70-300mm F4-5.6
------ZD 14-42mm F3.5-5.6
------ZD 14-42mm F3.5-5.6 Reverse
------Sigma 16mm F2.8 FishEye
------Sigma 70-300mm F4-5.6 DG Macro
------NIKON DX 18-55mm F3.5-5.6G2 ED Reverse
------Canon EF 50mm F1.8
------Canon EF 70-200mm F2.8L USM
------Canon EF 100mm F2.8L Macro IS USM
------Canon EF 200mm F2.8L USM
------Canon EF 300mm F2.8L IS USM II
------Canon EF-S 18-55mm F3.5-5.6 IS Reverse
------Canon EF-S 18-55mm F3.5-5.6 IS
------Carl Zeiss Planar T* 1.4/50mm ZE